  0
SECTION
  2
HEADER
  9
$ACADVER
  1
AC1014
  9
$HANDSEED
  5
FFFF
  9
$MEASUREMENT
 70
     1
  0
ENDSEC
  0
SECTION
  2
TABLES
  0
TABLE
  2
VPORT
  5
8
330
0
100
AcDbSymbolTable
 70
     4
  0
VPORT
  5
2E
330
8
100
AcDbSymbolTableRecord
100
AcDbViewportTableRecord
  2
*ACTIVE
 70
     0
 10
0.0
 20
0.0
 11
1.0
 21
1.0
 12
210.0
 22
148.5
 13
0.0
 23
0.0
 14
10.0
 24
10.0
 15
10.0
 25
10.0
 16
0.0
 26
0.0
 36
1.0
 17
0.0
 27
0.0
 37
0.0
 40
341.0
 41
1.24
 42
50.0
 43
0.0
 44
0.0
 50
0.0
 51
0.0
 71
     0
 72
   100
 73
     1
 74
     3
 75
     0
 76
     0
 77
     0
 78
     0
  0
ENDTAB
  0
TABLE
  2
LTYPE
  5
5
330
0
100
AcDbSymbolTable
 70
     1
  0
LTYPE
  5
14
330
5
100
AcDbSymbolTableRecord
100
AcDbLinetypeTableRecord
  2
BYBLOCK
 70
     0
  3

 72
    65
 73
     0
 40
0.0
  0
LTYPE
  5
15
330
5
100
AcDbSymbolTableRecord
100
AcDbLinetypeTableRecord
  2
BYLAYER
 70
     0
  3

 72
    65
 73
     0
 40
0.0
  0
LTYPE
  5
16
330
5
100
AcDbSymbolTableRecord
100
AcDbLinetypeTableRecord
  2
CONTINUOUS
 70
     0
  3
Solid line
 72
    65
 73
     0
 40
0.0
  0
ENDTAB
  0
TABLE
  2
LAYER
  5
2
100
AcDbSymbolTable
 70
2
  0
LAYER
  5
50
100
AcDbSymbolTableRecord
100
AcDbLayerTableRecord
  2
0
 70
0
  6
CONTINUOUS
  0
LAYER
  5
51
100
AcDbSymbolTableRecord
100
AcDbLayerTableRecord
  2
Calque_1
 70
0
  6
CONTINUOUS
  0
ENDTAB
  0
TABLE
  2
STYLE
  5
3
330
0
100
AcDbSymbolTable
 70
     1
  0
STYLE
  5
11
330
3
100
AcDbSymbolTableRecord
100
AcDbTextStyleTableRecord
  2
STANDARD
 70
     0
 40
0.0
 41
1.0
 50
0.0
 71
     0
 42
2.5
  3
txt
  4

  0
ENDTAB
  0
TABLE
  2
VIEW
  5
6
330
0
100
AcDbSymbolTable
 70
     0
  0
ENDTAB
  0
TABLE
  2
UCS
  5
7
330
0
100
AcDbSymbolTable
 70
     0
  0
ENDTAB
  0
TABLE
  2
APPID
  5
9
330
0
100
AcDbSymbolTable
 70
     2
  0
APPID
  5
12
330
9
100
AcDbSymbolTableRecord
100
AcDbRegAppTableRecord
  2
ACAD
 70
     0
  0
ENDTAB
  0
TABLE
  2
DIMSTYLE
  5
A
330
0
100
AcDbSymbolTable
 70
     1
  0
DIMSTYLE
105
27
330
A
100
AcDbSymbolTableRecord
100
AcDbDimStyleTableRecord
  2
ISO-25
 70
     0
  3

  4

  5

  6

  7

 40
1.0
 41
2.5
 42
0.625
 43
3.75
 44
1.25
 45
0.0
 46
0.0
 47
0.0
 48
0.0
140
2.5
141
2.5
142
0.0
143
0.03937007874016
144
1.0
145
0.0
146
1.0
147
0.625
 71
     0
 72
     0
 73
     0
 74
     0
 75
     0
 76
     0
 77
     1
 78
     8
170
     0
171
     3
172
     1
173
     0
174
     0
175
     0
176
     0
177
     0
178
     0
270
     2
271
     2
272
     2
273
     2
274
     3
340
11
275
     0
280
     0
281
     0
282
     0
283
     0
284
     8
285
     0
286
     0
287
     3
288
     0
  0
ENDTAB
  0
TABLE
  2
BLOCK_RECORD
  5
1
330
0
100
AcDbSymbolTable
 70
     1
  0
BLOCK_RECORD
  5
1F
330
1
100
AcDbSymbolTableRecord
100
AcDbBlockTableRecord
  2
*MODEL_SPACE
  0
BLOCK_RECORD
  5
1B
330
1
100
AcDbSymbolTableRecord
100
AcDbBlockTableRecord
  2
*PAPER_SPACE
  0
ENDTAB
  0
ENDSEC
  0
SECTION
  2
BLOCKS
  0
BLOCK
  5
20
330
1F
100
AcDbEntity
  8
0
100
AcDbBlockBegin
  2
*MODEL_SPACE
 70
     0
 10
0.0
 20
0.0
 30
0.0
  3
*MODEL_SPACE
  1

  0
ENDBLK
  5
21
330
1F
100
AcDbEntity
  8
0
100
AcDbBlockEnd
  0
BLOCK
  5
1C
330
1B
100
AcDbEntity
 67
     1
  8
0
100
AcDbBlockBegin
  2
*PAPER_SPACE
  1

  0
ENDBLK
  5
1D
330
1B
100
AcDbEntity
 67
     1
  8
0
100
AcDbBlockEnd
  0
ENDSEC
  0
SECTION
  2
ENTITIES
  0
SPLINE
  5
100
100
AcDbEntity
  8
Calque_1
 62
1
100
AcDbSpline
 70
8
 71
3
 72
8
 73
4
 74
0
 40
0
 40
0
 40
0
 40
0
 40
1
 40
1
 40
1
 40
1
 10
120.249112
 20
241.586657
 30
0.0
 10
120.249112
 20
241.586657
 30
0.0
 10
109.781469
 20
245.074641
 30
0.0
 10
104.026186
 20
244.129055
 30
0.0
  0
SPLINE
  5
101
100
AcDbEntity
  8
Calque_1
 62
1
100
AcDbSpline
 70
8
 71
3
 72
8
 73
4
 74
0
 40
0
 40
0
 40
0
 40
0
 40
1
 40
1
 40
1
 40
1
 10
104.026186
 20
244.129055
 30
0.0
 10
98.270903
 20
243.183469
 30
0.0
 10
98.236578
 20
240.309384
 30
0.0
 10
87.561135
 20
235.533322
 30
0.0
  0
SPLINE
  5
102
100
AcDbEntity
  8
Calque_1
 62
1
100
AcDbSpline
 70
8
 71
3
 72
8
 73
4
 74
0
 40
0
 40
0
 40
0
 40
0
 40
1
 40
1
 40
1
 40
1
 10
87.561135
 20
235.533322
 30
0.0
 10
76.885692
 20
230.757260
 30
0.0
 10
68.787969
 20
234.537898
 30
0.0
 10
66.132347
 20
239.649597
 30
0.0
  0
SPLINE
  5
103
100
AcDbEntity
  8
Calque_1
 62
1
100
AcDbSpline
 70
8
 71
3
 72
8
 73
4
 74
0
 40
0
 40
0
 40
0
 40
0
 40
1
 40
1
 40
1
 40
1
 10
66.132347
 20
239.649597
 30
0.0
 10
63.476734
 20
244.761286
 30
0.0
 10
65.600041
 20
250.242449
 30
0.0
 10
69.764351
 20
251.635171
 30
0.0
  0
SPLINE
  5
104
100
AcDbEntity
  8
Calque_1
 62
1
100
AcDbSpline
 70
8
 71
3
 72
8
 73
4
 74
0
 40
0
 40
0
 40
0
 40
0
 40
1
 40
1
 40
1
 40
1
 10
69.764351
 20
251.635171
 30
0.0
 10
73.928672
 20
253.027902
 30
0.0
 10
76.967871
 20
251.332651
 30
0.0
 10
77.996882
 20
248.850648
 30
0.0
  0
SPLINE
  5
105
100
AcDbEntity
  8
Calque_1
 62
1
100
AcDbSpline
 70
8
 71
3
 72
8
 73
4
 74
0
 40
0
 40
0
 40
0
 40
0
 40
1
 40
1
 40
1
 40
1
 10
77.996882
 20
248.850648
 30
0.0
 10
79.025893
 20
246.368645
 30
0.0
 10
77.579919
 20
243.249022
 30
0.0
 10
75.212349
 20
242.918380
 30
0.0
  0
SPLINE
  5
106
100
AcDbEntity
  8
Calque_1
 62
1
100
AcDbSpline
 70
8
 71
3
 72
8
 73
4
 74
0
 40
0
 40
0
 40
0
 40
0
 40
1
 40
1
 40
1
 40
1
 10
75.212349
 20
242.918380
 30
0.0
 10
72.844779
 20
242.587738
 30
0.0
 10
71.357424
 20
244.280765
 30
0.0
 10
70.975016
 20
247.397848
 30
0.0
  0
SPLINE
  5
107
100
AcDbEntity
  8
Calque_1
 62
1
100
AcDbSpline
 70
8
 71
3
 72
8
 73
4
 74
0
 40
0
 40
0
 40
0
 40
0
 40
1
 40
1
 40
1
 40
1
 10
70.975016
 20
247.397848
 30
0.0
 10
66.960614
 20
245.188009
 30
0.0
 10
69.939869
 20
237.733218
 30
0.0
 10
76.301947
 20
237.591459
 30
0.0
  0
SPLINE
  5
108
100
AcDbEntity
  8
Calque_1
 62
1
100
AcDbSpline
 70
8
 71
3
 72
8
 73
4
 74
0
 40
0
 40
0
 40
0
 40
0
 40
1
 40
1
 40
1
 40
1
 10
76.301947
 20
237.591459
 30
0.0
 10
79.111293
 20
237.528850
 30
0.0
 10
82.785801
 20
239.185356
 30
0.0
 10
84.693407
 20
242.002382
 30
0.0
  0
SPLINE
  5
109
100
AcDbEntity
  8
Calque_1
 62
1
100
AcDbSpline
 70
8
 71
3
 72
8
 73
4
 74
0
 40
0
 40
0
 40
0
 40
0
 40
1
 40
1
 40
1
 40
1
 10
84.693407
 20
242.002382
 30
0.0
 10
87.105782
 20
245.564817
 30
0.0
 10
87.432167
 20
251.345335
 30
0.0
 10
83.808072
 20
254.782915
 30
0.0
  0
SPLINE
  5
10a
100
AcDbEntity
  8
Calque_1
 62
1
100
AcDbSpline
 70
8
 71
3
 72
8
 73
4
 74
0
 40
0
 40
0
 40
0
 40
0
 40
1
 40
1
 40
1
 40
1
 10
83.808072
 20
254.782915
 30
0.0
 10
80.183968
 20
258.220495
 30
0.0
 10
75.154649
 20
262.839909
 30
0.0
 10
64.074219
 20
258.051708
 30
0.0
  0
SPLINE
  5
10b
100
AcDbEntity
  8
Calque_1
 62
1
100
AcDbSpline
 70
8
 71
3
 72
8
 73
4
 74
0
 40
0
 40
0
 40
0
 40
0
 40
1
 40
1
 40
1
 40
1
 10
64.074219
 20
258.051708
 30
0.0
 10
52.993789
 20
253.263507
 30
0.0
 10
54.637860
 20
236.496138
 30
0.0
 10
58.263028
 20
234.927985
 30
0.0
  0
SPLINE
  5
10c
100
AcDbEntity
  8
Calque_1
 62
1
100
AcDbSpline
 70
8
 71
3
 72
8
 73
4
 74
0
 40
0
 40
0
 40
0
 40
0
 40
1
 40
1
 40
1
 40
1
 10
58.263028
 20
234.927985
 30
0.0
 10
54.669231
 20
236.595584
 30
0.0
 10
44.246085
 20
243.185012
 30
0.0
 10
37.681708
 20
236.259727
 30
0.0
  0
SPLINE
  5
10d
100
AcDbEntity
  8
Calque_1
 62
1
100
AcDbSpline
 70
8
 71
3
 72
8
 73
4
 74
0
 40
0
 40
0
 40
0
 40
0
 40
1
 40
1
 40
1
 40
1
 10
37.681708
 20
236.259727
 30
0.0
 10
31.117332
 20
229.334441
 30
0.0
 10
36.370673
 20
219.413352
 30
0.0
 10
42.524371
 20
217.978664
 30
0.0
  0
SPLINE
  5
10e
100
AcDbEntity
  8
Calque_1
 62
1
100
AcDbSpline
 70
8
 71
3
 72
8
 73
4
 74
0
 40
0
 40
0
 40
0
 40
0
 40
1
 40
1
 40
1
 40
1
 10
42.524371
 20
217.978664
 30
0.0
 10
48.678065
 20
216.543975
 30
0.0
 10
52.437264
 20
217.599881
 30
0.0
 10
53.783570
 20
220.400004
 30
0.0
  0
SPLINE
  5
10f
100
AcDbEntity
  8
Calque_1
 62
1
100
AcDbSpline
 70
8
 71
3
 72
8
 73
4
 74
0
 40
0
 40
0
 40
0
 40
0
 40
1
 40
1
 40
1
 40
1
 10
53.783570
 20
220.400004
 30
0.0
 10
55.129867
 20
223.200136
 30
0.0
 10
55.916542
 20
226.410001
 30
0.0
 10
52.815031
 20
229.601074
 30
0.0
  0
SPLINE
  5
110
100
AcDbEntity
  8
Calque_1
 62
1
100
AcDbSpline
 70
8
 71
3
 72
8
 73
4
 74
0
 40
0
 40
0
 40
0
 40
0
 40
1
 40
1
 40
1
 40
1
 10
52.815031
 20
229.601074
 30
0.0
 10
51.288269
 20
231.171911
 30
0.0
 10
48.586452
 20
231.226774
 30
0.0
 10
46.846156
 20
230.291399
 30
0.0
  0
SPLINE
  5
111
100
AcDbEntity
  8
Calque_1
 62
1
100
AcDbSpline
 70
8
 71
3
 72
8
 73
4
 74
0
 40
0
 40
0
 40
0
 40
0
 40
1
 40
1
 40
1
 40
1
 10
46.846156
 20
230.291399
 30
0.0
 10
45.051153
 20
229.326618
 30
0.0
 10
44.240421
 20
227.339287
 30
0.0
 10
44.219303
 20
226.937599
 30
0.0
  0
SPLINE
  5
112
100
AcDbEntity
  8
Calque_1
 62
1
100
AcDbSpline
 70
8
 71
3
 72
8
 73
4
 74
0
 40
0
 40
0
 40
0
 40
0
 40
1
 40
1
 40
1
 40
1
 10
44.219303
 20
226.937599
 30
0.0
 10
44.177710
 20
226.146466
 30
0.0
 10
52.546366
 20
231.272000
 30
0.0
 10
50.999028
 20
225.121596
 30
0.0
  0
SPLINE
  5
113
100
AcDbEntity
  8
Calque_1
 62
1
100
AcDbSpline
 70
8
 71
3
 72
8
 73
4
 74
0
 40
0
 40
0
 40
0
 40
0
 40
1
 40
1
 40
1
 40
1
 10
50.999028
 20
225.121596
 30
0.0
 10
49.903706
 20
220.767894
 30
0.0
 10
44.010932
 20
220.585713
 30
0.0
 10
41.586105
 20
222.730536
 30
0.0
  0
SPLINE
  5
114
100
AcDbEntity
  8
Calque_1
 62
1
100
AcDbSpline
 70
8
 71
3
 72
8
 73
4
 74
0
 40
0
 40
0
 40
0
 40
0
 40
1
 40
1
 40
1
 40
1
 10
41.586105
 20
222.730536
 30
0.0
 10
39.247498
 20
224.799085
 30
0.0
 10
40.213692
 20
230.224858
 30
0.0
 10
42.766504
 20
232.022394
 30
0.0
  0
SPLINE
  5
115
100
AcDbEntity
  8
Calque_1
 62
1
100
AcDbSpline
 70
8
 71
3
 72
8
 73
4
 74
0
 40
0
 40
0
 40
0
 40
0
 40
1
 40
1
 40
1
 40
1
 10
42.766504
 20
232.022394
 30
0.0
 10
48.578705
 20
236.115006
 30
0.0
 10
56.111878
 20
231.285893
 30
0.0
 10
63.589958
 20
227.421869
 30
0.0
  0
SPLINE
  5
116
100
AcDbEntity
  8
Calque_1
 62
1
100
AcDbSpline
 70
8
 71
3
 72
8
 73
4
 74
0
 40
0
 40
0
 40
0
 40
0
 40
1
 40
1
 40
1
 40
1
 10
63.589958
 20
227.421869
 30
0.0
 10
68.380604
 20
224.946482
 30
0.0
 10
79.140575
 20
225.272080
 30
0.0
 10
86.471537
 20
227.663994
 30
0.0
  0
SPLINE
  5
117
100
AcDbEntity
  8
Calque_1
 62
1
100
AcDbSpline
 70
8
 71
3
 72
8
 73
4
 74
0
 40
0
 40
0
 40
0
 40
0
 40
1
 40
1
 40
1
 40
1
 10
86.471537
 20
227.663994
 30
0.0
 10
93.802500
 20
230.055908
 30
0.0
 10
99.874138
 20
238.719936
 30
0.0
 10
105.842188
 20
240.739185
 30
0.0
  0
SPLINE
  5
118
100
AcDbEntity
  8
Calque_1
 62
1
100
AcDbSpline
 70
8
 71
3
 72
8
 73
4
 74
0
 40
0
 40
0
 40
0
 40
0
 40
1
 40
1
 40
1
 40
1
 10
105.842188
 20
240.739185
 30
0.0
 10
111.810238
 20
242.758433
 30
0.0
 10
120.249112
 20
241.586657
 30
0.0
 10
120.249112
 20
241.586657
 30
0.0
  0
LINE
  5
119
100
AcDbEntity
  8
Calque_1
 62
1
100
AcDbLine
 10
120.249112
 20
241.586657
 30
0.0
 11
120.249112
 21
241.586657
 31
0.0
  0
SPLINE
  5
11a
100
AcDbEntity
  8
Calque_1
 62
1
100
AcDbSpline
 70
8
 71
3
 72
8
 73
4
 74
0
 40
0
 40
0
 40
0
 40
0
 40
1
 40
1
 40
1
 40
1
 10
130.030514
 20
236.111123
 30
0.0
 10
130.030514
 20
236.111123
 30
0.0
 10
125.057409
 20
245.960273
 30
0.0
 10
120.306198
 20
249.343077
 30
0.0
  0
SPLINE
  5
11b
100
AcDbEntity
  8
Calque_1
 62
1
100
AcDbSpline
 70
8
 71
3
 72
8
 73
4
 74
0
 40
0
 40
0
 40
0
 40
0
 40
1
 40
1
 40
1
 40
1
 10
120.306198
 20
249.343077
 30
0.0
 10
115.554979
 20
252.725880
 30
0.0
 10
113.506132
 20
250.710007
 30
0.0
 10
102.564373
 20
254.839657
 30
0.0
  0
SPLINE
  5
11c
100
AcDbEntity
  8
Calque_1
 62
1
100
AcDbSpline
 70
8
 71
3
 72
8
 73
4
 74
0
 40
0
 40
0
 40
0
 40
0
 40
1
 40
1
 40
1
 40
1
 10
102.564373
 20
254.839657
 30
0.0
 10
91.622634
 20
258.969297
 30
0.0
 10
88.537853
 20
267.356817
 30
0.0
 10
90.253537
 20
272.855756
 30
0.0
  0
SPLINE
  5
11d
100
AcDbEntity
  8
Calque_1
 62
1
100
AcDbSpline
 70
8
 71
3
 72
8
 73
4
 74
0
 40
0
 40
0
 40
0
 40
0
 40
1
 40
1
 40
1
 40
1
 10
90.253537
 20
272.855756
 30
0.0
 10
91.969201
 20
278.354666
 30
0.0
 10
97.337244
 20
280.749591
 30
0.0
 10
101.274137
 20
278.804850
 30
0.0
  0
SPLINE
  5
11e
100
AcDbEntity
  8
Calque_1
 62
1
100
AcDbSpline
 70
8
 71
3
 72
8
 73
4
 74
0
 40
0
 40
0
 40
0
 40
0
 40
1
 40
1
 40
1
 40
1
 10
101.274137
 20
278.804850
 30
0.0
 10
105.211040
 20
276.860091
 30
0.0
 10
106.174163
 20
273.515994
 30
0.0
 10
105.156254
 20
271.029408
 30
0.0
  0
SPLINE
  5
11f
100
AcDbEntity
  8
Calque_1
 62
1
100
AcDbSpline
 70
8
 71
3
 72
8
 73
4
 74
0
 40
0
 40
0
 40
0
 40
0
 40
1
 40
1
 40
1
 40
1
 10
105.156254
 20
271.029408
 30
0.0
 10
104.138346
 20
268.542841
 30
0.0
 10
100.914531
 20
267.347047
 30
0.0
 10
99.001105
 20
268.780048
 30
0.0
  0
SPLINE
  5
120
100
AcDbEntity
  8
Calque_1
 62
1
100
AcDbSpline
 70
8
 71
3
 72
8
 73
4
 74
0
 40
0
 40
0
 40
0
 40
0
 40
1
 40
1
 40
1
 40
1
 10
99.001105
 20
268.780048
 30
0.0
 10
97.087679
 20
270.213068
 30
0.0
 10
97.224509
 20
272.462467
 30
0.0
 10
99.148731
 20
274.944374
 30
0.0
  0
SPLINE
  5
121
100
AcDbEntity
  8
Calque_1
 62
1
100
AcDbSpline
 70
8
 71
3
 72
8
 73
4
 74
0
 40
0
 40
0
 40
0
 40
0
 40
1
 40
1
 40
1
 40
1
 10
99.148731
 20
274.944374
 30
0.0
 10
94.742678
 20
276.203535
 30
0.0
 10
91.606257
 20
268.813491
 30
0.0
 10
96.022262
 20
264.231451
 30
0.0
  0
SPLINE
  5
122
100
AcDbEntity
  8
Calque_1
 62
1
100
AcDbSpline
 70
8
 71
3
 72
8
 73
4
 74
0
 40
0
 40
0
 40
0
 40
0
 40
1
 40
1
 40
1
 40
1
 10
96.022262
 20
264.231451
 30
0.0
 10
97.972247
 20
262.208128
 30
0.0
 10
101.747276
 20
260.795626
 30
0.0
 10
105.085620
 20
261.451463
 30
0.0
  0
SPLINE
  5
123
100
AcDbEntity
  8
Calque_1
 62
1
100
AcDbSpline
 70
8
 71
3
 72
8
 73
4
 74
0
 40
0
 40
0
 40
0
 40
0
 40
1
 40
1
 40
1
 40
1
 10
105.085620
 20
261.451463
 30
0.0
 10
109.307305
 20
262.280833
 30
0.0
 10
113.610737
 20
266.153995
 30
0.0
 10
113.459745
 20
271.146803
 30
0.0
  0
SPLINE
  5
124
100
AcDbEntity
  8
Calque_1
 62
1
100
AcDbSpline
 70
8
 71
3
 72
8
 73
4
 74
0
 40
0
 40
0
 40
0
 40
0
 40
1
 40
1
 40
1
 40
1
 10
113.459745
 20
271.146803
 30
0.0
 10
113.308754
 20
276.139640
 30
0.0
 10
112.992782
 20
282.961165
 30
0.0
 10
101.755013
 20
287.367466
 30
0.0
  0
SPLINE
  5
125
100
AcDbEntity
  8
Calque_1
 62
1
100
AcDbSpline
 70
8
 71
3
 72
8
 73
4
 74
0
 40
0
 40
0
 40
0
 40
0
 40
1
 40
1
 40
1
 40
1
 10
101.755013
 20
287.367466
 30
0.0
 10
90.517245
 20
291.773749
 30
0.0
 10
79.873365
 20
278.714052
 30
0.0
 10
81.341947
 20
275.047425
 30
0.0
  0
SPLINE
  5
126
100
AcDbEntity
  8
Calque_1
 62
1
100
AcDbSpline
 70
8
 71
3
 72
8
 73
4
 74
0
 40
0
 40
0
 40
0
 40
0
 40
1
 40
1
 40
1
 40
1
 10
81.341947
 20
275.047425
 30
0.0
 10
79.965688
 20
278.762558
 30
0.0
 10
77.208817
 20
290.781795
 30
0.0
 10
67.671227
 20
290.490081
 30
0.0
  0
SPLINE
  5
127
100
AcDbEntity
  8
Calque_1
 62
1
100
AcDbSpline
 70
8
 71
3
 72
8
 73
4
 74
0
 40
0
 40
0
 40
0
 40
0
 40
1
 40
1
 40
1
 40
1
 10
67.671227
 20
290.490081
 30
0.0
 10
58.133638
 20
290.198338
 30
0.0
 10
54.874146
 20
279.455865
 30
0.0
 10
58.231503
 20
274.102884
 30
0.0
  0
SPLINE
  5
128
100
AcDbEntity
  8
Calque_1
 62
1
100
AcDbSpline
 70
8
 71
3
 72
8
 73
4
 74
0
 40
0
 40
0
 40
0
 40
0
 40
1
 40
1
 40
1
 40
1
 10
58.231503
 20
274.102884
 30
0.0
 10
61.588860
 20
268.749903
 30
0.0
 10
65.000936
 20
266.851425
 30
0.0
 10
67.928962
 20
267.890647
 30
0.0
  0
SPLINE
  5
129
100
AcDbEntity
  8
Calque_1
 62
1
100
AcDbSpline
 70
8
 71
3
 72
8
 73
4
 74
0
 40
0
 40
0
 40
0
 40
0
 40
1
 40
1
 40
1
 40
1
 10
67.928962
 20
267.890647
 30
0.0
 10
70.856960
 20
268.929879
 30
0.0
 10
73.676364
 20
270.654134
 30
0.0
 10
73.722664
 20
275.103879
 30
0.0
  0
SPLINE
  5
12a
100
AcDbEntity
  8
Calque_1
 62
1
100
AcDbSpline
 70
8
 71
3
 72
8
 73
4
 74
0
 40
0
 40
0
 40
0
 40
0
 40
1
 40
1
 40
1
 40
1
 10
73.722664
 20
275.103879
 30
0.0
 10
73.745483
 20
277.294321
 30
0.0
 10
71.866315
 20
279.236396
 30
0.0
 10
69.972171
 20
279.798329
 30
0.0
  0
SPLINE
  5
12b
100
AcDbEntity
  8
Calque_1
 62
1
100
AcDbSpline
 70
8
 71
3
 72
8
 73
4
 74
0
 40
0
 40
0
 40
0
 40
0
 40
1
 40
1
 40
1
 40
1
 10
69.972171
 20
279.798329
 30
0.0
 10
68.018466
 20
280.377903
 30
0.0
 10
66.043140
 20
279.538360
 30
0.0
 10
65.745203
 20
279.268113
 30
0.0
  0
SPLINE
  5
12c
100
AcDbEntity
  8
Calque_1
 62
1
100
AcDbSpline
 70
8
 71
3
 72
8
 73
4
 74
0
 40
0
 40
0
 40
0
 40
0
 40
1
 40
1
 40
1
 40
1
 10
65.745203
 20
279.268113
 30
0.0
 10
65.158399
 20
278.735865
 30
0.0
 10
74.708961
 20
276.479160
 30
0.0
 10
69.278337
 20
273.203493
 30
0.0
  0
SPLINE
  5
12d
100
AcDbEntity
  8
Calque_1
 62
1
100
AcDbSpline
 70
8
 71
3
 72
8
 73
4
 74
0
 40
0
 40
0
 40
0
 40
0
 40
1
 40
1
 40
1
 40
1
 10
69.278337
 20
273.203493
 30
0.0
 10
65.434130
 20
270.884745
 30
0.0
 10
61.123066
 20
274.906261
 30
0.0
 10
60.912706
 20
278.136712
 30
0.0
  0
SPLINE
  5
12e
100
AcDbEntity
  8
Calque_1
 62
1
100
AcDbSpline
 70
8
 71
3
 72
8
 73
4
 74
0
 40
0
 40
0
 40
0
 40
0
 40
1
 40
1
 40
1
 40
1
 10
60.912706
 20
278.136712
 30
0.0
 10
60.709814
 20
281.252289
 30
0.0
 10
65.217509
 20
284.422968
 30
0.0
 10
68.295702
 20
283.900691
 30
0.0
  0
SPLINE
  5
12f
100
AcDbEntity
  8
Calque_1
 62
1
100
AcDbSpline
 70
8
 71
3
 72
8
 73
4
 74
0
 40
0
 40
0
 40
0
 40
0
 40
1
 40
1
 40
1
 40
1
 10
68.295702
 20
283.900691
 30
0.0
 10
75.304068
 20
282.711570
 30
0.0
 10
77.249575
 20
273.977493
 30
0.0
 10
79.835771
 20
265.967260
 30
0.0
  0
SPLINE
  5
130
100
AcDbEntity
  8
Calque_1
 62
1
100
AcDbSpline
 70
8
 71
3
 72
8
 73
4
 74
0
 40
0
 40
0
 40
0
 40
0
 40
1
 40
1
 40
1
 40
1
 10
79.835771
 20
265.967260
 30
0.0
 10
81.492565
 20
260.835704
 30
0.0
 10
89.359438
 20
253.487540
 30
0.0
 10
96.247858
 20
250.021446
 30
0.0
  0
SPLINE
  5
131
100
AcDbEntity
  8
Calque_1
 62
1
100
AcDbSpline
 70
8
 71
3
 72
8
 73
4
 74
0
 40
0
 40
0
 40
0
 40
0
 40
1
 40
1
 40
1
 40
1
 10
96.247858
 20
250.021446
 30
0.0
 10
103.136287
 20
246.555351
 30
0.0
 10
113.548895
 20
248.428326
 30
0.0
 10
119.207406
 20
245.657734
 30
0.0
  0
SPLINE
  5
132
100
AcDbEntity
  8
Calque_1
 62
1
100
AcDbSpline
 70
8
 71
3
 72
8
 73
4
 74
0
 40
0
 40
0
 40
0
 40
0
 40
1
 40
1
 40
1
 40
1
 10
119.207406
 20
245.657734
 30
0.0
 10
124.865927
 20
242.887152
 30
0.0
 10
130.030514
 20
236.111123
 30
0.0
 10
130.030514
 20
236.111123
 30
0.0
  0
LINE
  5
133
100
AcDbEntity
  8
Calque_1
 62
1
100
AcDbLine
 10
130.030514
 20
236.111123
 30
0.0
 11
130.030514
 21
236.111123
 31
0.0
  0
SPLINE
  5
134
100
AcDbEntity
  8
Calque_1
 62
1
100
AcDbSpline
 70
8
 71
3
 72
8
 73
4
 74
0
 40
0
 40
0
 40
0
 40
0
 40
1
 40
1
 40
1
 40
1
 10
133.672624
 20
225.459458
 30
0.0
 10
133.672624
 20
225.459458
 30
0.0
 10
137.094518
 20
236.070048
 30
0.0
 10
136.098087
 20
241.739288
 30
0.0
  0
SPLINE
  5
135
100
AcDbEntity
  8
Calque_1
 62
1
100
AcDbSpline
 70
8
 71
3
 72
8
 73
4
 74
0
 40
0
 40
0
 40
0
 40
0
 40
1
 40
1
 40
1
 40
1
 10
136.098087
 20
241.739288
 30
0.0
 10
135.101665
 20
247.408557
 30
0.0
 10
132.212729
 20
247.277423
 30
0.0
 10
127.327038
 20
257.619558
 30
0.0
  0
SPLINE
  5
136
100
AcDbEntity
  8
Calque_1
 62
1
100
AcDbSpline
 70
8
 71
3
 72
8
 73
4
 74
0
 40
0
 40
0
 40
0
 40
0
 40
1
 40
1
 40
1
 40
1
 10
127.327038
 20
257.619558
 30
0.0
 10
122.441366
 20
267.961675
 30
0.0
 10
126.176365
 20
276.232203
 30
0.0
 10
131.292762
 20
279.167104
 30
0.0
  0
SPLINE
  5
137
100
AcDbEntity
  8
Calque_1
 62
1
100
AcDbSpline
 70
8
 71
3
 72
8
 73
4
 74
0
 40
0
 40
0
 40
0
 40
0
 40
1
 40
1
 40
1
 40
1
 10
131.292762
 20
279.167104
 30
0.0
 10
136.409083
 20
282.101995
 30
0.0
 10
141.935040
 20
280.305533
 30
0.0
 10
143.368166
 20
276.244178
 30
0.0
  0
SPLINE
  5
138
100
AcDbEntity
  8
Calque_1
 62
1
100
AcDbSpline
 70
8
 71
3
 72
8
 73
4
 74
0
 40
0
 40
0
 40
0
 40
0
 40
1
 40
1
 40
1
 40
1
 10
143.368166
 20
276.244178
 30
0.0
 10
144.801253
 20
272.182852
 30
0.0
 10
143.121707
 20
269.062903
 30
0.0
 10
140.635379
 20
267.896861
 30
0.0
  0
SPLINE
  5
139
100
AcDbEntity
  8
Calque_1
 62
1
100
AcDbSpline
 70
8
 71
3
 72
8
 73
4
 74
0
 40
0
 40
0
 40
0
 40
0
 40
1
 40
1
 40
1
 40
1
 10
140.635379
 20
267.896861
 30
0.0
 10
138.149033
 20
266.730808
 30
0.0
 10
135.002017
 20
267.989480
 30
0.0
 10
134.650742
 20
270.324989
 30
0.0
  0
SPLINE
  5
13a
100
AcDbEntity
  8
Calque_1
 62
1
100
AcDbSpline
 70
8
 71
3
 72
8
 73
4
 74
0
 40
0
 40
0
 40
0
 40
0
 40
1
 40
1
 40
1
 40
1
 10
134.650742
 20
270.324989
 30
0.0
 10
134.299487
 20
272.660545
 30
0.0
 10
135.989139
 20
274.237039
 30
0.0
 10
139.119011
 20
274.796556
 30
0.0
  0
SPLINE
  5
13b
100
AcDbEntity
  8
Calque_1
 62
1
100
AcDbSpline
 70
8
 71
3
 72
8
 73
4
 74
0
 40
0
 40
0
 40
0
 40
0
 40
1
 40
1
 40
1
 40
1
 10
139.119011
 20
274.796556
 30
0.0
 10
136.865854
 20
278.661827
 30
0.0
 10
129.397103
 20
275.270384
 30
0.0
 10
129.305528
 20
268.935134
 30
0.0
  0
SPLINE
  5
13c
100
AcDbEntity
  8
Calque_1
 62
1
100
AcDbSpline
 70
8
 71
3
 72
8
 73
4
 74
0
 40
0
 40
0
 40
0
 40
0
 40
1
 40
1
 40
1
 40
1
 10
129.305528
 20
268.935134
 30
0.0
 10
129.265066
 20
266.137638
 30
0.0
 10
130.959397
 20
262.578607
 30
0.0
 10
133.805955
 20
260.843432
 30
0.0
  0
SPLINE
  5
13d
100
AcDbEntity
  8
Calque_1
 62
1
100
AcDbSpline
 70
8
 71
3
 72
8
 73
4
 74
0
 40
0
 40
0
 40
0
 40
0
 40
1
 40
1
 40
1
 40
1
 10
133.805955
 20
260.843432
 30
0.0
 10
137.405753
 20
258.649145
 30
0.0
 10
143.218190
 20
258.656902
 30
0.0
 10
146.644207
 20
262.458700
 30
0.0
  0
SPLINE
  5
13e
100
AcDbEntity
  8
Calque_1
 62
1
100
AcDbSpline
 70
8
 71
3
 72
8
 73
4
 74
0
 40
0
 40
0
 40
0
 40
0
 40
1
 40
1
 40
1
 40
1
 10
146.644207
 20
262.458700
 30
0.0
 10
150.070243
 20
266.260499
 30
0.0
 10
154.672811
 20
271.527744
 30
0.0
 10
149.771692
 20
282.271932
 30
0.0
  0
SPLINE
  5
13f
100
AcDbEntity
  8
Calque_1
 62
1
100
AcDbSpline
 70
8
 71
3
 72
8
 73
4
 74
0
 40
0
 40
0
 40
0
 40
0
 40
1
 40
1
 40
1
 40
1
 10
149.771692
 20
282.271932
 30
0.0
 10
144.870545
 20
293.016093
 30
0.0
 10
128.031304
 20
290.417040
 30
0.0
 10
126.484225
 20
286.721668
 30
0.0
  0
SPLINE
  5
140
100
AcDbEntity
  8
Calque_1
 62
1
100
AcDbSpline
 70
8
 71
3
 72
8
 73
4
 74
0
 40
0
 40
0
 40
0
 40
0
 40
1
 40
1
 40
1
 40
1
 10
126.484225
 20
286.721668
 30
0.0
 10
128.131546
 20
290.391574
 30
0.0
 10
134.670983
 20
301.136213
 30
0.0
 10
127.658034
 20
307.266319
 30
0.0
  0
SPLINE
  5
141
100
AcDbEntity
  8
Calque_1
 62
1
100
AcDbSpline
 70
8
 71
3
 72
8
 73
4
 74
0
 40
0
 40
0
 40
0
 40
0
 40
1
 40
1
 40
1
 40
1
 10
127.658034
 20
307.266319
 30
0.0
 10
120.645095
 20
313.396397
 30
0.0
 10
110.715760
 20
307.601563
 30
0.0
 10
109.323039
 20
301.399250
 30
0.0
  0
SPLINE
  5
142
100
AcDbEntity
  8
Calque_1
 62
1
100
AcDbSpline
 70
8
 71
3
 72
8
 73
4
 74
0
 40
0
 40
0
 40
0
 40
0
 40
1
 40
1
 40
1
 40
1
 10
109.323039
 20
301.399250
 30
0.0
 10
107.930307
 20
295.196927
 30
0.0
 10
109.021698
 20
291.519121
 30
0.0
 10
111.846759
 20
290.341208
 30
0.0
  0
SPLINE
  5
143
100
AcDbEntity
  8
Calque_1
 62
1
100
AcDbSpline
 70
8
 71
3
 72
8
 73
4
 74
0
 40
0
 40
0
 40
0
 40
0
 40
1
 40
1
 40
1
 40
1
 10
111.846759
 20
290.341208
 30
0.0
 10
114.671820
 20
289.163315
 30
0.0
 10
117.904274
 20
288.565504
 30
0.0
 10
121.086718
 20
291.833415
 30
0.0
  0
SPLINE
  5
144
100
AcDbEntity
  8
Calque_1
 62
1
100
AcDbSpline
 70
8
 71
3
 72
8
 73
4
 74
0
 40
0
 40
0
 40
0
 40
0
 40
1
 40
1
 40
1
 40
1
 10
121.086718
 20
291.833415
 30
0.0
 10
122.653327
 20
293.442077
 30
0.0
 10
122.686809
 20
296.132197
 30
0.0
 10
121.732737
 20
297.809154
 30
0.0
  0
SPLINE
  5
145
100
AcDbEntity
  8
Calque_1
 62
1
100
AcDbSpline
 70
8
 71
3
 72
8
 73
4
 74
0
 40
0
 40
0
 40
0
 40
0
 40
1
 40
1
 40
1
 40
1
 10
121.732737
 20
297.809154
 30
0.0
 10
120.748694
 20
299.538798
 30
0.0
 10
118.744815
 20
300.230830
 30
0.0
 10
118.340911
 20
300.228720
 30
0.0
  0
SPLINE
  5
146
100
AcDbEntity
  8
Calque_1
 62
1
100
AcDbSpline
 70
8
 71
3
 72
8
 73
4
 74
0
 40
0
 40
0
 40
0
 40
0
 40
1
 40
1
 40
1
 40
1
 10
118.340911
 20
300.228720
 30
0.0
 10
117.545435
 20
300.224885
 30
0.0
 10
122.763925
 20
292.196675
 30
0.0
 10
116.569953
 20
293.381893
 30
0.0
  0
SPLINE
  5
147
100
AcDbEntity
  8
Calque_1
 62
1
100
AcDbSpline
 70
8
 71
3
 72
8
 73
4
 74
0
 40
0
 40
0
 40
0
 40
0
 40
1
 40
1
 40
1
 40
1
 10
116.569953
 20
293.381893
 30
0.0
 10
112.185407
 20
294.220890
 30
0.0
 10
111.955151
 20
300.070749
 30
0.0
 10
114.091440
 20
302.605553
 30
0.0
  0
SPLINE
  5
148
100
AcDbEntity
  8
Calque_1
 62
1
100
AcDbSpline
 70
8
 71
3
 72
8
 73
4
 74
0
 40
0
 40
0
 40
0
 40
0
 40
1
 40
1
 40
1
 40
1
 10
114.091440
 20
302.605553
 30
0.0
 10
116.151754
 20
305.050230
 30
0.0
 10
121.612782
 20
304.401315
 30
0.0
 10
123.439878
 20
301.965910
 30
0.0
  0
SPLINE
  5
149
100
AcDbEntity
  8
Calque_1
 62
1
100
AcDbSpline
 70
8
 71
3
 72
8
 73
4
 74
0
 40
0
 40
0
 40
0
 40
0
 40
1
 40
1
 40
1
 40
1
 10
123.439878
 20
301.965910
 30
0.0
 10
127.599739
 20
296.420968
 30
0.0
 10
122.806419
 20
288.651595
 30
0.0
 10
118.982616
 20
280.992512
 30
0.0
  0
SPLINE
  5
14a
100
AcDbEntity
  8
Calque_1
 62
1
100
AcDbSpline
 70
8
 71
3
 72
8
 73
4
 74
0
 40
0
 40
0
 40
0
 40
0
 40
1
 40
1
 40
1
 40
1
 10
118.982616
 20
280.992512
 30
0.0
 10
116.533020
 20
276.085919
 30
0.0
 10
116.946329
 20
265.403851
 30
0.0
 10
119.409051
 20
258.250735
 30
0.0
  0
SPLINE
  5
14b
100
AcDbEntity
  8
Calque_1
 62
1
100
AcDbSpline
 70
8
 71
3
 72
8
 73
4
 74
0
 40
0
 40
0
 40
0
 40
0
 40
1
 40
1
 40
1
 40
1
 10
119.409051
 20
258.250735
 30
0.0
 10
121.871744
 20
251.097630
 30
0.0
 10
130.628286
 20
245.557530
 30
0.0
 10
132.705494
 20
239.738420
 30
0.0
  0
SPLINE
  5
14c
100
AcDbEntity
  8
Calque_1
 62
1
100
AcDbSpline
 70
8
 71
3
 72
8
 73
4
 74
0
 40
0
 40
0
 40
0
 40
0
 40
1
 40
1
 40
1
 40
1
 10
132.705494
 20
239.738420
 30
0.0
 10
134.782750
 20
233.919300
 30
0.0
 10
133.672567
 20
225.459467
 30
0.0
 10
133.672567
 20
225.459467
 30
0.0
  0
LINE
  5
14d
100
AcDbEntity
  8
Calque_1
 62
1
100
AcDbLine
 10
133.672567
 20
225.459467
 30
0.0
 11
133.672624
 21
225.459458
 31
0.0
  0
SPLINE
  5
14e
100
AcDbEntity
  8
Calque_1
 62
1
100
AcDbSpline
 70
8
 71
3
 72
8
 73
4
 74
0
 40
0
 40
0
 40
0
 40
0
 40
1
 40
1
 40
1
 40
1
 10
128.614167
 20
216.423215
 30
0.0
 10
128.614167
 20
216.423215
 30
0.0
 10
138.384380
 20
221.534789
 30
0.0
 10
141.622827
 20
226.243755
 30
0.0
  0
SPLINE
  5
14f
100
AcDbEntity
  8
Calque_1
 62
1
100
AcDbSpline
 70
8
 71
3
 72
8
 73
4
 74
0
 40
0
 40
0
 40
0
 40
0
 40
1
 40
1
 40
1
 40
1
 10
141.622827
 20
226.243755
 30
0.0
 10
144.861322
 20
230.952759
 30
0.0
 10
142.743422
 20
232.882772
 30
0.0
 10
146.498757
 20
243.621275
 30
0.0
  0
SPLINE
  5
150
100
AcDbEntity
  8
Calque_1
 62
1
100
AcDbSpline
 70
8
 71
3
 72
8
 73
4
 74
0
 40
0
 40
0
 40
0
 40
0
 40
1
 40
1
 40
1
 40
1
 10
146.498757
 20
243.621275
 30
0.0
 10
150.254121
 20
254.359769
 30
0.0
 10
158.618745
 20
257.596375
 30
0.0
 10
164.246709
 20
256.090515
 30
0.0
  0
SPLINE
  5
151
100
AcDbEntity
  8
Calque_1
 62
1
100
AcDbSpline
 70
8
 71
3
 72
8
 73
4
 74
0
 40
0
 40
0
 40
0
 40
0
 40
1
 40
1
 40
1
 40
1
 10
164.246709
 20
256.090515
 30
0.0
 10
169.874606
 20
254.584712
 30
0.0
 10
172.503775
 20
249.444412
 30
0.0
 10
170.688454
 20
245.567339
 30
0.0
  0
SPLINE
  5
152
100
AcDbEntity
  8
Calque_1
 62
1
100
AcDbSpline
 70
8
 71
3
 72
8
 73
4
 74
0
 40
0
 40
0
 40
0
 40
0
 40
1
 40
1
 40
1
 40
1
 10
170.688454
 20
245.567339
 30
0.0
 10
168.873094
 20
241.690294
 30
0.0
 10
165.527827
 20
240.658770
 30
0.0
 10
162.973636
 20
241.574634
 30
0.0
  0
SPLINE
  5
153
100
AcDbEntity
  8
Calque_1
 62
1
100
AcDbSpline
 70
8
 71
3
 72
8
 73
4
 74
0
 40
0
 40
0
 40
0
 40
0
 40
1
 40
1
 40
1
 40
1
 10
162.973636
 20
241.574634
 30
0.0
 10
160.419388
 20
242.490507
 30
0.0
 10
159.085709
 20
245.584597
 30
0.0
 10
160.461383
 20
247.483056
 30
0.0
  0
SPLINE
  5
154
100
AcDbEntity
  8
Calque_1
 62
1
100
AcDbSpline
 70
8
 71
3
 72
8
 73
4
 74
0
 40
0
 40
0
 40
0
 40
0
 40
1
 40
1
 40
1
 40
1
 10
160.461383
 20
247.483056
 30
0.0
 10
161.837096
 20
249.381525
 30
0.0
 10
164.117444
 20
249.313891
 30
0.0
 10
166.701904
 20
247.518244
 30
0.0
  0
SPLINE
  5
155
100
AcDbEntity
  8
Calque_1
 62
1
100
AcDbSpline
 70
8
 71
3
 72
8
 73
4
 74
0
 40
0
 40
0
 40
0
 40
0
 40
1
 40
1
 40
1
 40
1
 10
166.701904
 20
247.518244
 30
0.0
 10
167.805730
 20
251.830756
 30
0.0
 10
160.210322
 20
254.660697
 30
0.0
 10
155.745974
 20
250.242286
 30
0.0
  0
SPLINE
  5
156
100
AcDbEntity
  8
Calque_1
 62
1
100
AcDbSpline
 70
8
 71
3
 72
8
 73
4
 74
0
 40
0
 40
0
 40
0
 40
0
 40
1
 40
1
 40
1
 40
1
 10
155.745974
 20
250.242286
 30
0.0
 10
153.774608
 20
248.291227
 30
0.0
 10
152.491420
 20
244.586699
 30
0.0
 10
153.283349
 20
241.365846
 30
0.0
  0
SPLINE
  5
157
100
AcDbEntity
  8
Calque_1
 62
1
100
AcDbSpline
 70
8
 71
3
 72
8
 73
4
 74
0
 40
0
 40
0
 40
0
 40
0
 40
1
 40
1
 40
1
 40
1
 10
153.283349
 20
241.365846
 30
0.0
 10
154.284862
 20
237.292727
 30
0.0
 10
158.368125
 20
233.228400
 30
0.0
 10
163.412248
 20
233.519529
 30
0.0
  0
SPLINE
  5
158
100
AcDbEntity
  8
Calque_1
 62
1
100
AcDbSpline
 70
8
 71
3
 72
8
 73
4
 74
0
 40
0
 40
0
 40
0
 40
0
 40
1
 40
1
 40
1
 40
1
 10
163.412248
 20
233.519529
 30
0.0
 10
168.456409
 20
233.810591
 30
0.0
 10
175.343765
 20
234.314785
 30
0.0
 10
179.367535
 20
245.348570
 30
0.0
  0
SPLINE
  5
159
100
AcDbEntity
  8
Calque_1
 62
1
100
AcDbSpline
 70
8
 71
3
 72
8
 73
4
 74
0
 40
0
 40
0
 40
0
 40
0
 40
1
 40
1
 40
1
 40
1
 10
179.367535
 20
245.348570
 30
0.0
 10
183.391314
 20
256.382363
 30
0.0
 10
169.772101
 20
266.334058
 30
0.0
 10
166.120105
 20
264.802636
 30
0.0
  0
SPLINE
  5
15a
100
AcDbEntity
  8
Calque_1
 62
1
100
AcDbSpline
 70
8
 71
3
 72
8
 73
4
 74
0
 40
0
 40
0
 40
0
 40
0
 40
1
 40
1
 40
1
 40
1
 10
166.120105
 20
264.802636
 30
0.0
 10
169.824739
 20
266.245839
 30
0.0
 10
181.875253
 20
269.269390
 30
0.0
 10
181.212752
 20
278.517153
 30
0.0
  0
SPLINE
  5
15b
100
AcDbEntity
  8
Calque_1
 62
1
100
AcDbSpline
 70
8
 71
3
 72
8
 73
4
 74
0
 40
0
 40
0
 40
0
 40
0
 40
1
 40
1
 40
1
 40
1
 10
181.212752
 20
278.517153
 30
0.0
 10
180.550222
 20
287.764898
 30
0.0
 10
169.559286
 20
290.617150
 30
0.0
 10
164.274409
 20
287.203867
 30
0.0
  0
SPLINE
  5
15c
100
AcDbEntity
  8
Calque_1
 62
1
100
AcDbSpline
 70
8
 71
3
 72
8
 73
4
 74
0
 40
0
 40
0
 40
0
 40
0
 40
1
 40
1
 40
1
 40
1
 10
164.274409
 20
287.203867
 30
0.0
 10
158.989522
 20
283.790592
 30
0.0
 10
157.200817
 20
280.424155
 30
0.0
 10
158.364712
 20
277.612642
 30
0.0
  0
SPLINE
  5
15d
100
AcDbEntity
  8
Calque_1
 62
1
100
AcDbSpline
 70
8
 71
3
 72
8
 73
4
 74
0
 40
0
 40
0
 40
0
 40
0
 40
1
 40
1
 40
1
 40
1
 10
158.364712
 20
277.612642
 30
0.0
 10
159.528626
 20
274.801158
 30
0.0
 10
161.381216
 20
272.114835
 30
0.0
 10
165.883656
 20
272.198749
 30
0.0
  0
SPLINE
  5
15e
100
AcDbEntity
  8
Calque_1
 62
1
100
AcDbSpline
 70
8
 71
3
 72
8
 73
4
 74
0
 40
0
 40
0
 40
0
 40
0
 40
1
 40
1
 40
1
 40
1
 10
165.883656
 20
272.198749
 30
0.0
 10
168.100043
 20
272.240073
 30
0.0
 10
169.991935
 20
274.119980
 30
0.0
 10
170.487279
 20
275.974545
 30
0.0
  0
SPLINE
  5
15f
100
AcDbEntity
  8
Calque_1
 62
1
100
AcDbSpline
 70
8
 71
3
 72
8
 73
4
 74
0
 40
0
 40
0
 40
0
 40
0
 40
1
 40
1
 40
1
 40
1
 10
170.487279
 20
275.974545
 30
0.0
 10
170.998232
 20
277.887386
 30
0.0
 10
170.072991
 20
279.780111
 30
0.0
 10
169.788152
 20
280.061442
 30
0.0
  0
SPLINE
  5
160
100
AcDbEntity
  8
Calque_1
 62
1
100
AcDbSpline
 70
8
 71
3
 72
8
 73
4
 74
0
 40
0
 40
0
 40
0
 40
0
 40
1
 40
1
 40
1
 40
1
 10
169.788152
 20
280.061442
 30
0.0
 10
169.227427
 20
280.615733
 30
0.0
 10
167.312659
 20
271.281400
 30
0.0
 10
163.790293
 20
276.456955
 30
0.0
  0
SPLINE
  5
161
100
AcDbEntity
  8
Calque_1
 62
1
100
AcDbSpline
 70
8
 71
3
 72
8
 73
4
 74
0
 40
0
 40
0
 40
0
 40
0
 40
1
 40
1
 40
1
 40
1
 10
163.790293
 20
276.456955
 30
0.0
 10
161.296890
 20
280.120619
 30
0.0
 10
165.198336
 20
284.420916
 30
0.0
 10
168.457637
 20
284.718604
 30
0.0
  0
SPLINE
  5
162
100
AcDbEntity
  8
Calque_1
 62
1
100
AcDbSpline
 70
8
 71
3
 72
8
 73
4
 74
0
 40
0
 40
0
 40
0
 40
0
 40
1
 40
1
 40
1
 40
1
 10
168.457637
 20
284.718604
 30
0.0
 10
171.601028
 20
285.005725
 30
0.0
 10
174.981675
 20
280.722850
 30
0.0
 10
174.572009
 20
277.720315
 30
0.0
  0
SPLINE
  5
163
100
AcDbEntity
  8
Calque_1
 62
1
100
AcDbSpline
 70
8
 71
3
 72
8
 73
4
 74
0
 40
0
 40
0
 40
0
 40
0
 40
1
 40
1
 40
1
 40
1
 10
174.572009
 20
277.720315
 30
0.0
 10
173.639271
 20
270.884284
 30
0.0
 10
164.880226
 20
268.743288
 30
0.0
 10
156.877980
 20
266.001479
 30
0.0
  0
SPLINE
  5
164
100
AcDbEntity
  8
Calque_1
 62
1
100
AcDbSpline
 70
8
 71
3
 72
8
 73
4
 74
0
 40
0
 40
0
 40
0
 40
0
 40
1
 40
1
 40
1
 40
1
 10
156.877980
 20
266.001479
 30
0.0
 10
151.751573
 20
264.244999
 30
0.0
 10
144.622379
 20
256.397484
 30
0.0
 10
141.382025
 20
249.611905
 30
0.0
  0
SPLINE
  5
165
100
AcDbEntity
  8
Calque_1
 62
1
100
AcDbSpline
 70
8
 71
3
 72
8
 73
4
 74
0
 40
0
 40
0
 40
0
 40
0
 40
1
 40
1
 40
1
 40
1
 10
141.382025
 20
249.611905
 30
0.0
 10
138.141689
 20
242.826364
 30
0.0
 10
140.437225
 20
232.775204
 30
0.0
 10
137.852947
 20
227.203455
 30
0.0
  0
SPLINE
  5
166
100
AcDbEntity
  8
Calque_1
 62
1
100
AcDbSpline
 70
8
 71
3
 72
8
 73
4
 74
0
 40
0
 40
0
 40
0
 40
0
 40
1
 40
1
 40
1
 40
1
 10
137.852947
 20
227.203455
 30
0.0
 10
135.268669
 20
221.631657
 30
0.0
 10
128.614090
 20
216.423224
 30
0.0
 10
128.614090
 20
216.423224
 30
0.0
  0
LINE
  5
167
100
AcDbEntity
  8
Calque_1
 62
1
100
AcDbLine
 10
128.614090
 20
216.423224
 30
0.0
 11
128.614167
 21
216.423215
 31
0.0
  0
SPLINE
  5
168
100
AcDbEntity
  8
Calque_1
 62
1
100
AcDbSpline
 70
8
 71
3
 72
8
 73
4
 74
0
 40
0
 40
0
 40
0
 40
0
 40
1
 40
1
 40
1
 40
1
 10
117.626098
 20
213.477710
 30
0.0
 10
117.626098
 20
213.477710
 30
0.0
 10
128.118976
 20
210.088818
 30
0.0
 10
133.747794
 20
211.077924
 30
0.0
  0
SPLINE
  5
169
100
AcDbEntity
  8
Calque_1
 62
1
100
AcDbSpline
 70
8
 71
3
 72
8
 73
4
 74
0
 40
0
 40
0
 40
0
 40
0
 40
1
 40
1
 40
1
 40
1
 10
133.747794
 20
211.077924
 30
0.0
 10
139.376679
 20
212.067030
 30
0.0
 10
139.269619
 20
214.930414
 30
0.0
 10
149.562415
 20
219.775672
 30
0.0
  0
SPLINE
  5
16a
100
AcDbEntity
  8
Calque_1
 62
1
100
AcDbSpline
 70
8
 71
3
 72
8
 73
4
 74
0
 40
0
 40
0
 40
0
 40
0
 40
1
 40
1
 40
1
 40
1
 10
149.562415
 20
219.775672
 30
0.0
 10
159.855221
 20
224.620874
 30
0.0
 10
168.025506
 20
220.921024
 30
0.0
 10
170.894691
 20
215.850572
 30
0.0
  0
SPLINE
  5
16b
100
AcDbEntity
  8
Calque_1
 62
1
100
AcDbSpline
 70
8
 71
3
 72
8
 73
4
 74
0
 40
0
 40
0
 40
0
 40
0
 40
1
 40
1
 40
1
 40
1
 10
170.894691
 20
215.850572
 30
0.0
 10
173.763847
 20
210.780207
 30
0.0
 10
171.938746
 20
205.302592
 30
0.0
 10
167.900632
 20
203.881068
 30
0.0
  0
SPLINE
  5
16c
100
AcDbEntity
  8
Calque_1
 62
1
100
AcDbSpline
 70
8
 71
3
 72
8
 73
4
 74
0
 40
0
 40
0
 40
0
 40
0
 40
1
 40
1
 40
1
 40
1
 10
167.900632
 20
203.881068
 30
0.0
 10
163.862509
 20
202.459582
 30
0.0
 10
160.782552
 20
204.123491
 30
0.0
 10
159.646241
 20
206.587516
 30
0.0
  0
SPLINE
  5
16d
100
AcDbEntity
  8
Calque_1
 62
1
100
AcDbSpline
 70
8
 71
3
 72
8
 73
4
 74
0
 40
0
 40
0
 40
0
 40
0
 40
1
 40
1
 40
1
 40
1
 10
159.646241
 20
206.587516
 30
0.0
 10
158.509893
 20
209.051618
 30
0.0
 10
159.782909
 20
212.171174
 30
0.0
 10
162.101264
 20
212.519947
 30
0.0
  0
SPLINE
  5
16e
100
AcDbEntity
  8
Calque_1
 62
1
100
AcDbSpline
 70
8
 71
3
 72
8
 73
4
 74
0
 40
0
 40
0
 40
0
 40
0
 40
1
 40
1
 40
1
 40
1
 10
162.101264
 20
212.519947
 30
0.0
 10
164.419705
 20
212.868710
 30
0.0
 10
165.969296
 20
211.194379
 30
0.0
 10
166.499128
 20
208.092293
 30
0.0
  0
SPLINE
  5
16f
100
AcDbEntity
  8
Calque_1
 62
1
100
AcDbSpline
 70
8
 71
3
 72
8
 73
4
 74
0
 40
0
 40
0
 40
0
 40
0
 40
1
 40
1
 40
1
 40
1
 10
166.499128
 20
208.092293
 30
0.0
 10
170.349355
 20
210.326561
 30
0.0
 10
167.046257
 20
217.728456
 30
0.0
 10
160.765744
 20
217.817566
 30
0.0
  0
SPLINE
  5
170
100
AcDbEntity
  8
Calque_1
 62
1
100
AcDbSpline
 70
8
 71
3
 72
8
 73
4
 74
0
 40
0
 40
0
 40
0
 40
0
 40
1
 40
1
 40
1
 40
1
 10
160.765744
 20
217.817566
 30
0.0
 10
157.992410
 20
217.856973
 30
0.0
 10
154.450273
 20
216.176660
 30
0.0
 10
152.707264
 20
213.354792
 30
0.0
  0
SPLINE
  5
171
100
AcDbEntity
  8
Calque_1
 62
1
100
AcDbSpline
 70
8
 71
3
 72
8
 73
4
 74
0
 40
0
 40
0
 40
0
 40
0
 40
1
 40
1
 40
1
 40
1
 10
152.707264
 20
213.354792
 30
0.0
 10
150.503035
 20
209.786211
 30
0.0
 10
150.464491
 20
204.025108
 30
0.0
 10
154.206633
 20
200.630358
 30
0.0
  0
SPLINE
  5
172
100
AcDbEntity
  8
Calque_1
 62
1
100
AcDbSpline
 70
8
 71
3
 72
8
 73
4
 74
0
 40
0
 40
0
 40
0
 40
0
 40
1
 40
1
 40
1
 40
1
 10
154.206633
 20
200.630358
 30
0.0
 10
157.948746
 20
197.235531
 30
0.0
 10
163.134475
 20
192.675026
 30
0.0
 10
173.826006
 20
197.535654
 30
0.0
  0
SPLINE
  5
173
100
AcDbEntity
  8
Calque_1
 62
1
100
AcDbSpline
 70
8
 71
3
 72
8
 73
4
 74
0
 40
0
 40
0
 40
0
 40
0
 40
1
 40
1
 40
1
 40
1
 10
173.826006
 20
197.535654
 30
0.0
 10
184.517576
 20
202.396292
 30
0.0
 10
182.074625
 20
219.086143
 30
0.0
 10
178.423061
 20
220.618590
 30
0.0
  0
SPLINE
  5
174
100
AcDbEntity
  8
Calque_1
 62
1
100
AcDbSpline
 70
8
 71
3
 72
8
 73
4
 74
0
 40
0
 40
0
 40
0
 40
0
 40
1
 40
1
 40
1
 40
1
 10
178.423061
 20
220.618590
 30
0.0
 10
182.048565
 20
218.986764
 30
0.0
 10
192.649557
 20
212.507923
 30
0.0
 10
198.783192
 20
219.460525
 30
0.0
  0
SPLINE
  5
175
100
AcDbEntity
  8
Calque_1
 62
1
100
AcDbSpline
 70
8
 71
3
 72
8
 73
4
 74
0
 40
0
 40
0
 40
0
 40
0
 40
1
 40
1
 40
1
 40
1
 10
198.783192
 20
219.460525
 30
0.0
 10
204.916778
 20
226.413117
 30
0.0
 10
199.250337
 20
236.253217
 30
0.0
 10
193.112005
 20
237.632036
 30
0.0
  0
SPLINE
  5
176
100
AcDbEntity
  8
Calque_1
 62
1
100
AcDbSpline
 70
8
 71
3
 72
8
 73
4
 74
0
 40
0
 40
0
 40
0
 40
0
 40
1
 40
1
 40
1
 40
1
 10
193.112005
 20
237.632036
 30
0.0
 10
186.973653
 20
239.010864
 30
0.0
 10
183.318503
 20
237.928103
 30
0.0
 10
182.128164
 20
235.127731
 30
0.0
  0
SPLINE
  5
177
100
AcDbEntity
  8
Calque_1
 62
1
100
AcDbSpline
 70
8
 71
3
 72
8
 73
4
 74
0
 40
0
 40
0
 40
0
 40
0
 40
1
 40
1
 40
1
 40
1
 10
182.128164
 20
235.127731
 30
0.0
 10
180.937864
 20
232.327311
 30
0.0
 10
180.319420
 20
229.123266
 30
0.0
 10
183.534156
 20
225.969778
 30
0.0
  0
SPLINE
  5
178
100
AcDbEntity
  8
Calque_1
 62
1
100
AcDbSpline
 70
8
 71
3
 72
8
 73
4
 74
0
 40
0
 40
0
 40
0
 40
0
 40
1
 40
1
 40
1
 40
1
 10
183.534156
 20
225.969778
 30
0.0
 10
185.116672
 20
224.417455
 30
0.0
 10
187.783541
 20
224.384933
 30
0.0
 10
189.453787
 20
225.331017
 30
0.0
  0
SPLINE
  5
179
100
AcDbEntity
  8
Calque_1
 62
1
100
AcDbSpline
 70
8
 71
3
 72
8
 73
4
 74
0
 40
0
 40
0
 40
0
 40
0
 40
1
 40
1
 40
1
 40
1
 10
189.453787
 20
225.331017
 30
0.0
 10
191.176527
 20
226.306815
 30
0.0
 10
191.878588
 20
228.293167
 30
0.0
 10
191.879719
 20
228.693513
 30
0.0
  0
SPLINE
  5
17a
100
AcDbEntity
  8
Calque_1
 62
1
100
AcDbSpline
 70
8
 71
3
 72
8
 73
4
 74
0
 40
0
 40
0
 40
0
 40
0
 40
1
 40
1
 40
1
 40
1
 10
191.879719
 20
228.693513
 30
0.0
 10
191.882595
 20
229.481952
 30
0.0
 10
183.880982
 20
224.307452
 30
0.0
 10
185.105358
 20
230.447031
 30
0.0
  0
SPLINE
  5
17b
100
AcDbEntity
  8
Calque_1
 62
1
100
AcDbSpline
 70
8
 71
3
 72
8
 73
4
 74
0
 40
0
 40
0
 40
0
 40
0
 40
1
 40
1
 40
1
 40
1
 10
185.105358
 20
230.447031
 30
0.0
 10
185.972083
 20
234.793091
 30
0.0
 10
191.773896
 20
235.022829
 30
0.0
 10
194.270080
 20
232.906061
 30
0.0
  0
SPLINE
  5
17c
100
AcDbEntity
  8
Calque_1
 62
1
100
AcDbSpline
 70
8
 71
3
 72
8
 73
4
 74
0
 40
0
 40
0
 40
0
 40
0
 40
1
 40
1
 40
1
 40
1
 10
194.270080
 20
232.906061
 30
0.0
 10
196.677508
 20
230.864597
 30
0.0
 10
195.990672
 20
225.451624
 30
0.0
 10
193.561490
 20
223.640023
 30
0.0
  0
SPLINE
  5
17d
100
AcDbEntity
  8
Calque_1
 62
1
100
AcDbSpline
 70
8
 71
3
 72
8
 73
4
 74
0
 40
0
 40
0
 40
0
 40
0
 40
1
 40
1
 40
1
 40
1
 10
193.561490
 20
223.640023
 30
0.0
 10
188.030738
 20
219.515474
 30
0.0
 10
180.365740
 20
224.264421
 30
0.0
 10
172.802393
 20
228.052451
 30
0.0
  0
SPLINE
  5
17e
100
AcDbEntity
  8
Calque_1
 62
1
100
AcDbSpline
 70
8
 71
3
 72
8
 73
4
 74
0
 40
0
 40
0
 40
0
 40
0
 40
1
 40
1
 40
1
 40
1
 10
172.802393
 20
228.052451
 30
0.0
 10
167.957134
 20
230.479141
 30
0.0
 10
157.362844
 20
230.066704
 30
0.0
 10
150.251149
 20
227.623859
 30
0.0
  0
SPLINE
  5
17f
100
AcDbEntity
  8
Calque_1
 62
1
100
AcDbSpline
 70
8
 71
3
 72
8
 73
4
 74
0
 40
0
 40
0
 40
0
 40
0
 40
1
 40
1
 40
1
 40
1
 10
150.251149
 20
227.623859
 30
0.0
 10
143.139454
 20
225.181052
 30
0.0
 10
137.576918
 20
216.500408
 30
0.0
 10
131.790925
 20
214.440027
 30
0.0
  0
SPLINE
  5
180
100
AcDbEntity
  8
Calque_1
 62
1
100
AcDbSpline
 70
8
 71
3
 72
8
 73
4
 74
0
 40
0
 40
0
 40
0
 40
0
 40
1
 40
1
 40
1
 40
1
 10
131.790925
 20
214.440027
 30
0.0
 10
126.004903
 20
212.379607
 30
0.0
 10
117.626041
 20
213.477777
 30
0.0
 10
117.626041
 20
213.477777
 30
0.0
  0
LINE
  5
181
100
AcDbEntity
  8
Calque_1
 62
1
100
AcDbLine
 10
117.626041
 20
213.477777
 30
0.0
 11
117.626098
 21
213.477710
 31
0.0
  0
SPLINE
  5
182
100
AcDbEntity
  8
Calque_1
 62
1
100
AcDbSpline
 70
8
 71
3
 72
8
 73
4
 74
0
 40
0
 40
0
 40
0
 40
0
 40
1
 40
1
 40
1
 40
1
 10
117.626098
 20
213.477710
 30
0.0
 10
117.626098
 20
213.477710
 30
0.0
 10
128.118976
 20
210.088818
 30
0.0
 10
133.747794
 20
211.077924
 30
0.0
  0
SPLINE
  5
183
100
AcDbEntity
  8
Calque_1
 62
1
100
AcDbSpline
 70
8
 71
3
 72
8
 73
4
 74
0
 40
0
 40
0
 40
0
 40
0
 40
1
 40
1
 40
1
 40
1
 10
133.747794
 20
211.077924
 30
0.0
 10
139.376679
 20
212.067030
 30
0.0
 10
139.269619
 20
214.930414
 30
0.0
 10
149.562415
 20
219.775672
 30
0.0
  0
SPLINE
  5
184
100
AcDbEntity
  8
Calque_1
 62
1
100
AcDbSpline
 70
8
 71
3
 72
8
 73
4
 74
0
 40
0
 40
0
 40
0
 40
0
 40
1
 40
1
 40
1
 40
1
 10
149.562415
 20
219.775672
 30
0.0
 10
159.855221
 20
224.620874
 30
0.0
 10
168.025506
 20
220.921024
 30
0.0
 10
170.894691
 20
215.850572
 30
0.0
  0
SPLINE
  5
185
100
AcDbEntity
  8
Calque_1
 62
1
100
AcDbSpline
 70
8
 71
3
 72
8
 73
4
 74
0
 40
0
 40
0
 40
0
 40
0
 40
1
 40
1
 40
1
 40
1
 10
170.894691
 20
215.850572
 30
0.0
 10
173.763847
 20
210.780207
 30
0.0
 10
171.938746
 20
205.302592
 30
0.0
 10
167.900632
 20
203.881068
 30
0.0
  0
SPLINE
  5
186
100
AcDbEntity
  8
Calque_1
 62
1
100
AcDbSpline
 70
8
 71
3
 72
8
 73
4
 74
0
 40
0
 40
0
 40
0
 40
0
 40
1
 40
1
 40
1
 40
1
 10
167.900632
 20
203.881068
 30
0.0
 10
163.862509
 20
202.459582
 30
0.0
 10
160.782552
 20
204.123491
 30
0.0
 10
159.646241
 20
206.587516
 30
0.0
  0
SPLINE
  5
187
100
AcDbEntity
  8
Calque_1
 62
1
100
AcDbSpline
 70
8
 71
3
 72
8
 73
4
 74
0
 40
0
 40
0
 40
0
 40
0
 40
1
 40
1
 40
1
 40
1
 10
159.646241
 20
206.587516
 30
0.0
 10
158.509893
 20
209.051618
 30
0.0
 10
159.782909
 20
212.171174
 30
0.0
 10
162.101264
 20
212.519947
 30
0.0
  0
SPLINE
  5
188
100
AcDbEntity
  8
Calque_1
 62
1
100
AcDbSpline
 70
8
 71
3
 72
8
 73
4
 74
0
 40
0
 40
0
 40
0
 40
0
 40
1
 40
1
 40
1
 40
1
 10
162.101264
 20
212.519947
 30
0.0
 10
164.419705
 20
212.868710
 30
0.0
 10
165.969296
 20
211.194379
 30
0.0
 10
166.499128
 20
208.092293
 30
0.0
  0
SPLINE
  5
189
100
AcDbEntity
  8
Calque_1
 62
1
100
AcDbSpline
 70
8
 71
3
 72
8
 73
4
 74
0
 40
0
 40
0
 40
0
 40
0
 40
1
 40
1
 40
1
 40
1
 10
166.499128
 20
208.092293
 30
0.0
 10
170.349355
 20
210.326561
 30
0.0
 10
167.046257
 20
217.728456
 30
0.0
 10
160.765744
 20
217.817566
 30
0.0
  0
SPLINE
  5
18a
100
AcDbEntity
  8
Calque_1
 62
1
100
AcDbSpline
 70
8
 71
3
 72
8
 73
4
 74
0
 40
0
 40
0
 40
0
 40
0
 40
1
 40
1
 40
1
 40
1
 10
160.765744
 20
217.817566
 30
0.0
 10
157.992410
 20
217.856973
 30
0.0
 10
154.450273
 20
216.176660
 30
0.0
 10
152.707264
 20
213.354792
 30
0.0
  0
SPLINE
  5
18b
100
AcDbEntity
  8
Calque_1
 62
1
100
AcDbSpline
 70
8
 71
3
 72
8
 73
4
 74
0
 40
0
 40
0
 40
0
 40
0
 40
1
 40
1
 40
1
 40
1
 10
152.707264
 20
213.354792
 30
0.0
 10
150.503035
 20
209.786211
 30
0.0
 10
150.464491
 20
204.025108
 30
0.0
 10
154.206633
 20
200.630358
 30
0.0
  0
SPLINE
  5
18c
100
AcDbEntity
  8
Calque_1
 62
1
100
AcDbSpline
 70
8
 71
3
 72
8
 73
4
 74
0
 40
0
 40
0
 40
0
 40
0
 40
1
 40
1
 40
1
 40
1
 10
154.206633
 20
200.630358
 30
0.0
 10
157.948746
 20
197.235531
 30
0.0
 10
163.134475
 20
192.675026
 30
0.0
 10
173.826006
 20
197.535654
 30
0.0
  0
SPLINE
  5
18d
100
AcDbEntity
  8
Calque_1
 62
1
100
AcDbSpline
 70
8
 71
3
 72
8
 73
4
 74
0
 40
0
 40
0
 40
0
 40
0
 40
1
 40
1
 40
1
 40
1
 10
173.826006
 20
197.535654
 30
0.0
 10
184.517576
 20
202.396292
 30
0.0
 10
182.074625
 20
219.086143
 30
0.0
 10
178.423061
 20
220.618590
 30
0.0
  0
SPLINE
  5
18e
100
AcDbEntity
  8
Calque_1
 62
1
100
AcDbSpline
 70
8
 71
3
 72
8
 73
4
 74
0
 40
0
 40
0
 40
0
 40
0
 40
1
 40
1
 40
1
 40
1
 10
178.423061
 20
220.618590
 30
0.0
 10
182.048565
 20
218.986764
 30
0.0
 10
192.649557
 20
212.507923
 30
0.0
 10
198.783192
 20
219.460525
 30
0.0
  0
SPLINE
  5
18f
100
AcDbEntity
  8
Calque_1
 62
1
100
AcDbSpline
 70
8
 71
3
 72
8
 73
4
 74
0
 40
0
 40
0
 40
0
 40
0
 40
1
 40
1
 40
1
 40
1
 10
198.783192
 20
219.460525
 30
0.0
 10
204.916778
 20
226.413117
 30
0.0
 10
199.250337
 20
236.253217
 30
0.0
 10
193.112005
 20
237.632036
 30
0.0
  0
SPLINE
  5
190
100
AcDbEntity
  8
Calque_1
 62
1
100
AcDbSpline
 70
8
 71
3
 72
8
 73
4
 74
0
 40
0
 40
0
 40
0
 40
0
 40
1
 40
1
 40
1
 40
1
 10
193.112005
 20
237.632036
 30
0.0
 10
186.973653
 20
239.010864
 30
0.0
 10
183.318503
 20
237.928103
 30
0.0
 10
182.128164
 20
235.127731
 30
0.0
  0
SPLINE
  5
191
100
AcDbEntity
  8
Calque_1
 62
1
100
AcDbSpline
 70
8
 71
3
 72
8
 73
4
 74
0
 40
0
 40
0
 40
0
 40
0
 40
1
 40
1
 40
1
 40
1
 10
182.128164
 20
235.127731
 30
0.0
 10
180.937864
 20
232.327311
 30
0.0
 10
180.319420
 20
229.123266
 30
0.0
 10
183.534156
 20
225.969778
 30
0.0
  0
SPLINE
  5
192
100
AcDbEntity
  8
Calque_1
 62
1
100
AcDbSpline
 70
8
 71
3
 72
8
 73
4
 74
0
 40
0
 40
0
 40
0
 40
0
 40
1
 40
1
 40
1
 40
1
 10
183.534156
 20
225.969778
 30
0.0
 10
185.116672
 20
224.417455
 30
0.0
 10
187.783541
 20
224.384933
 30
0.0
 10
189.453787
 20
225.331017
 30
0.0
  0
SPLINE
  5
193
100
AcDbEntity
  8
Calque_1
 62
1
100
AcDbSpline
 70
8
 71
3
 72
8
 73
4
 74
0
 40
0
 40
0
 40
0
 40
0
 40
1
 40
1
 40
1
 40
1
 10
189.453787
 20
225.331017
 30
0.0
 10
191.176527
 20
226.306815
 30
0.0
 10
191.878588
 20
228.293167
 30
0.0
 10
191.879719
 20
228.693513
 30
0.0
  0
SPLINE
  5
194
100
AcDbEntity
  8
Calque_1
 62
1
100
AcDbSpline
 70
8
 71
3
 72
8
 73
4
 74
0
 40
0
 40
0
 40
0
 40
0
 40
1
 40
1
 40
1
 40
1
 10
191.879719
 20
228.693513
 30
0.0
 10
191.882595
 20
229.481952
 30
0.0
 10
183.880982
 20
224.307452
 30
0.0
 10
185.105358
 20
230.447031
 30
0.0
  0
SPLINE
  5
195
100
AcDbEntity
  8
Calque_1
 62
1
100
AcDbSpline
 70
8
 71
3
 72
8
 73
4
 74
0
 40
0
 40
0
 40
0
 40
0
 40
1
 40
1
 40
1
 40
1
 10
185.105358
 20
230.447031
 30
0.0
 10
185.972083
 20
234.793091
 30
0.0
 10
191.773896
 20
235.022829
 30
0.0
 10
194.270080
 20
232.906061
 30
0.0
  0
SPLINE
  5
196
100
AcDbEntity
  8
Calque_1
 62
1
100
AcDbSpline
 70
8
 71
3
 72
8
 73
4
 74
0
 40
0
 40
0
 40
0
 40
0
 40
1
 40
1
 40
1
 40
1
 10
194.270080
 20
232.906061
 30
0.0
 10
196.677508
 20
230.864597
 30
0.0
 10
195.990672
 20
225.451624
 30
0.0
 10
193.561490
 20
223.640023
 30
0.0
  0
SPLINE
  5
197
100
AcDbEntity
  8
Calque_1
 62
1
100
AcDbSpline
 70
8
 71
3
 72
8
 73
4
 74
0
 40
0
 40
0
 40
0
 40
0
 40
1
 40
1
 40
1
 40
1
 10
193.561490
 20
223.640023
 30
0.0
 10
188.030738
 20
219.515474
 30
0.0
 10
180.365740
 20
224.264421
 30
0.0
 10
172.802393
 20
228.052451
 30
0.0
  0
SPLINE
  5
198
100
AcDbEntity
  8
Calque_1
 62
1
100
AcDbSpline
 70
8
 71
3
 72
8
 73
4
 74
0
 40
0
 40
0
 40
0
 40
0
 40
1
 40
1
 40
1
 40
1
 10
172.802393
 20
228.052451
 30
0.0
 10
167.957134
 20
230.479141
 30
0.0
 10
157.362844
 20
230.066704
 30
0.0
 10
150.251149
 20
227.623859
 30
0.0
  0
SPLINE
  5
199
100
AcDbEntity
  8
Calque_1
 62
1
100
AcDbSpline
 70
8
 71
3
 72
8
 73
4
 74
0
 40
0
 40
0
 40
0
 40
0
 40
1
 40
1
 40
1
 40
1
 10
150.251149
 20
227.623859
 30
0.0
 10
143.139454
 20
225.181052
 30
0.0
 10
137.576918
 20
216.500408
 30
0.0
 10
131.790925
 20
214.440027
 30
0.0
  0
SPLINE
  5
19a
100
AcDbEntity
  8
Calque_1
 62
1
100
AcDbSpline
 70
8
 71
3
 72
8
 73
4
 74
0
 40
0
 40
0
 40
0
 40
0
 40
1
 40
1
 40
1
 40
1
 10
131.790925
 20
214.440027
 30
0.0
 10
126.004903
 20
212.379607
 30
0.0
 10
117.626041
 20
213.477777
 30
0.0
 10
117.626041
 20
213.477777
 30
0.0
  0
LINE
  5
19b
100
AcDbEntity
  8
Calque_1
 62
1
100
AcDbLine
 10
117.626041
 20
213.477777
 30
0.0
 11
117.626098
 21
213.477710
 31
0.0
  0
SPLINE
  5
19c
100
AcDbEntity
  8
Calque_1
 62
1
100
AcDbSpline
 70
8
 71
3
 72
8
 73
4
 74
0
 40
0
 40
0
 40
0
 40
0
 40
1
 40
1
 40
1
 40
1
 10
108.955503
 20
218.188439
 30
0.0
 10
108.955503
 20
218.188439
 30
0.0
 10
113.784960
 20
208.275749
 30
0.0
 10
118.399197
 20
204.903684
 30
0.0
  0
SPLINE
  5
19d
100
AcDbEntity
  8
Calque_1
 62
1
100
AcDbSpline
 70
8
 71
3
 72
8
 73
4
 74
0
 40
0
 40
0
 40
0
 40
0
 40
1
 40
1
 40
1
 40
1
 10
118.399197
 20
204.903684
 30
0.0
 10
123.013471
 20
201.531561
 30
0.0
 10
125.003380
 20
203.593294
 30
0.0
 10
135.629858
 20
199.531748
 30
0.0
  0
SPLINE
  5
19e
100
AcDbEntity
  8
Calque_1
 62
1
100
AcDbSpline
 70
8
 71
3
 72
8
 73
4
 74
0
 40
0
 40
0
 40
0
 40
0
 40
1
 40
1
 40
1
 40
1
 10
135.629858
 20
199.531748
 30
0.0
 10
146.256296
 20
195.470192
 30
0.0
 10
149.251861
 20
187.016236
 30
0.0
 10
147.585354
 20
181.433748
 30
0.0
  0
SPLINE
  5
19f
100
AcDbEntity
  8
Calque_1
 62
1
100
AcDbSpline
 70
8
 71
3
 72
8
 73
4
 74
0
 40
0
 40
0
 40
0
 40
0
 40
1
 40
1
 40
1
 40
1
 10
147.585354
 20
181.433748
 30
0.0
 10
145.918867
 20
175.851317
 30
0.0
 10
140.705343
 20
173.370542
 30
0.0
 10
136.881885
 20
175.296231
 30
0.0
  0
SPLINE
  5
1a0
100
AcDbEntity
  8
Calque_1
 62
1
100
AcDbSpline
 70
8
 71
3
 72
8
 73
4
 74
0
 40
0
 40
0
 40
0
 40
0
 40
1
 40
1
 40
1
 40
1
 10
136.881885
 20
175.296231
 30
0.0
 10
133.058456
 20
177.221948
 30
0.0
 10
132.123235
 20
180.595394
 30
0.0
 10
133.111919
 20
183.122288
 30
0.0
  0
SPLINE
  5
1a1
100
AcDbEntity
  8
Calque_1
 62
1
100
AcDbSpline
 70
8
 71
3
 72
8
 73
4
 74
0
 40
0
 40
0
 40
0
 40
0
 40
1
 40
1
 40
1
 40
1
 10
133.111919
 20
183.122288
 30
0.0
 10
134.100354
 20
185.649354
 30
0.0
 10
137.231674
 20
186.893683
 30
0.0
 10
139.089892
 20
185.464201
 30
0.0
  0
SPLINE
  5
1a2
100
AcDbEntity
  8
Calque_1
 62
1
100
AcDbSpline
 70
8
 71
3
 72
8
 73
4
 74
0
 40
0
 40
0
 40
0
 40
0
 40
1
 40
1
 40
1
 40
1
 10
139.089892
 20
185.464201
 30
0.0
 10
140.948168
 20
184.034642
 30
0.0
 10
140.815202
 20
181.757151
 30
0.0
 10
138.946245
 20
179.225233
 30
0.0
  0
SPLINE
  5
1a3
100
AcDbEntity
  8
Calque_1
 62
1
100
AcDbSpline
 70
8
 71
3
 72
8
 73
4
 74
0
 40
0
 40
0
 40
0
 40
0
 40
1
 40
1
 40
1
 40
1
 10
138.946245
 20
179.225233
 30
0.0
 10
143.225353
 20
177.998287
 30
0.0
 10
146.271771
 20
185.509456
 30
0.0
 10
141.983134
 20
190.098581
 30
0.0
  0
SPLINE
  5
1a4
100
AcDbEntity
  8
Calque_1
 62
1
100
AcDbSpline
 70
8
 71
3
 72
8
 73
4
 74
0
 40
0
 40
0
 40
0
 40
0
 40
1
 40
1
 40
1
 40
1
 10
141.983134
 20
190.098581
 30
0.0
 10
140.089382
 20
192.125098
 30
0.0
 10
136.423139
 20
193.513888
 30
0.0
 10
133.180914
 20
192.814598
 30
0.0
  0
SPLINE
  5
1a5
100
AcDbEntity
  8
Calque_1
 62
1
100
AcDbSpline
 70
8
 71
3
 72
8
 73
4
 74
0
 40
0
 40
0
 40
0
 40
0
 40
1
 40
1
 40
1
 40
1
 10
133.180914
 20
192.814598
 30
0.0
 10
129.080757
 20
191.930212
 30
0.0
 10
124.901086
 20
187.965111
 30
0.0
 10
125.047543
 20
182.914708
 30
0.0
  0
SPLINE
  5
1a6
100
AcDbEntity
  8
Calque_1
 62
1
100
AcDbSpline
 70
8
 71
3
 72
8
 73
4
 74
0
 40
0
 40
0
 40
0
 40
0
 40
1
 40
1
 40
1
 40
1
 10
125.047543
 20
182.914708
 30
0.0
 10
125.193894
 20
177.864276
 30
0.0
 10
125.500546
 20
170.965281
 30
0.0
 10
136.414481
 20
166.626987
 30
0.0
  0
SPLINE
  5
1a7
100
AcDbEntity
  8
Calque_1
 62
1
100
AcDbSpline
 70
8
 71
3
 72
8
 73
4
 74
0
 40
0
 40
0
 40
0
 40
0
 40
1
 40
1
 40
1
 40
1
 10
136.414481
 20
166.626987
 30
0.0
 10
147.328434
 20
162.288664
 30
0.0
 10
157.666332
 20
175.617064
 30
0.0
 10
156.240187
 20
179.311448
 30
0.0
  0
SPLINE
  5
1a8
100
AcDbEntity
  8
Calque_1
 62
1
100
AcDbSpline
 70
8
 71
3
 72
8
 73
4
 74
0
 40
0
 40
0
 40
0
 40
0
 40
1
 40
1
 40
1
 40
1
 10
156.240187
 20
179.311448
 30
0.0
 10
157.576637
 20
175.566976
 30
0.0
 10
160.253813
 20
163.434821
 30
0.0
 10
169.516562
 20
163.831994
 30
0.0
  0
SPLINE
  5
1a9
100
AcDbEntity
  8
Calque_1
 62
1
100
AcDbSpline
 70
8
 71
3
 72
8
 73
4
 74
0
 40
0
 40
0
 40
0
 40
0
 40
1
 40
1
 40
1
 40
1
 10
169.516562
 20
163.831994
 30
0.0
 10
178.779475
 20
164.229205
 30
0.0
 10
181.945533
 20
175.133916
 30
0.0
 10
178.685139
 20
180.514414
 30
0.0
  0
SPLINE
  5
1aa
100
AcDbEntity
  8
Calque_1
 62
1
100
AcDbSpline
 70
8
 71
3
 72
8
 73
4
 74
0
 40
0
 40
0
 40
0
 40
0
 40
1
 40
1
 40
1
 40
1
 10
178.685139
 20
180.514414
 30
0.0
 10
175.424726
 20
185.894960
 30
0.0
 10
172.110889
 20
187.779382
 30
0.0
 10
169.267208
 20
186.696554
 30
0.0
  0
SPLINE
  5
1ab
100
AcDbEntity
  8
Calque_1
 62
1
100
AcDbSpline
 70
8
 71
3
 72
8
 73
4
 74
0
 40
0
 40
0
 40
0
 40
0
 40
1
 40
1
 40
1
 40
1
 10
169.267208
 20
186.696554
 30
0.0
 10
166.423517
 20
185.613697
 30
0.0
 10
163.685218
 20
183.838855
 30
0.0
 10
163.640058
 20
179.335859
 30
0.0
  0
SPLINE
  5
1ac
100
AcDbEntity
  8
Calque_1
 62
1
100
AcDbSpline
 70
8
 71
3
 72
8
 73
4
 74
0
 40
0
 40
0
 40
0
 40
0
 40
1
 40
1
 40
1
 40
1
 10
163.640058
 20
179.335859
 30
0.0
 10
163.617814
 20
177.119194
 30
0.0
 10
165.442753
 20
175.174214
 30
0.0
 10
167.282361
 20
174.625915
 30
0.0
  0
SPLINE
  5
1ad
100
AcDbEntity
  8
Calque_1
 62
1
100
AcDbSpline
 70
8
 71
3
 72
8
 73
4
 74
0
 40
0
 40
0
 40
0
 40
0
 40
1
 40
1
 40
1
 40
1
 10
167.282361
 20
174.625915
 30
0.0
 10
169.179784
 20
174.060359
 30
0.0
 10
171.098244
 20
174.930976
 30
0.0
 10
171.387629
 20
175.207628
 30
0.0
  0
SPLINE
  5
1ae
100
AcDbEntity
  8
Calque_1
 62
1
100
AcDbSpline
 70
8
 71
3
 72
8
 73
4
 74
0
 40
0
 40
0
 40
0
 40
0
 40
1
 40
1
 40
1
 40
1
 10
171.387629
 20
175.207628
 30
0.0
 10
171.957970
 20
175.752024
 30
0.0
 10
162.682123
 20
177.933722
 30
0.0
 10
167.956511
 20
181.306333
 30
0.0
  0
SPLINE
  5
1af
100
AcDbEntity
  8
Calque_1
 62
1
100
AcDbSpline
 70
8
 71
3
 72
8
 73
4
 74
0
 40
0
 40
0
 40
0
 40
0
 40
1
 40
1
 40
1
 40
1
 10
167.956511
 20
181.306333
 30
0.0
 10
171.690110
 20
183.693713
 30
0.0
 10
175.876847
 20
179.670623
 30
0.0
 10
176.081004
 20
176.404141
 30
0.0
  0
SPLINE
  5
1b0
100
AcDbEntity
  8
Calque_1
 62
1
100
AcDbSpline
 70
8
 71
3
 72
8
 73
4
 74
0
 40
0
 40
0
 40
0
 40
0
 40
1
 40
1
 40
1
 40
1
 10
176.081004
 20
176.404141
 30
0.0
 10
176.277912
 20
173.253818
 30
0.0
 10
171.899895
 20
169.997307
 30
0.0
 10
168.910362
 20
170.492833
 30
0.0
  0
SPLINE
  5
1b1
100
AcDbEntity
  8
Calque_1
 62
1
100
AcDbSpline
 70
8
 71
3
 72
8
 73
4
 74
0
 40
0
 40
0
 40
0
 40
0
 40
1
 40
1
 40
1
 40
1
 10
168.910362
 20
170.492833
 30
0.0
 10
162.103881
 20
171.621099
 30
0.0
 10
160.214761
 20
180.437902
 30
0.0
 10
157.703419
 20
188.515423
 30
0.0
  0
SPLINE
  5
1b2
100
AcDbEntity
  8
Calque_1
 62
1
100
AcDbSpline
 70
8
 71
3
 72
8
 73
4
 74
0
 40
0
 40
0
 40
0
 40
0
 40
1
 40
1
 40
1
 40
1
 10
157.703419
 20
188.515423
 30
0.0
 10
156.094555
 20
193.690077
 30
0.0
 10
148.454572
 20
201.041232
 30
0.0
 10
141.764652
 20
204.474698
 30
0.0
  0
SPLINE
  5
1b3
100
AcDbEntity
  8
Calque_1
 62
1
100
AcDbSpline
 70
8
 71
3
 72
8
 73
4
 74
0
 40
0
 40
0
 40
0
 40
0
 40
1
 40
1
 40
1
 40
1
 10
141.764652
 20
204.474698
 30
0.0
 10
135.074761
 20
207.908194
 30
0.0
 10
124.961941
 20
205.901630
 30
0.0
 10
119.466540
 20
208.644513
 30
0.0
  0
SPLINE
  5
1b4
100
AcDbEntity
  8
Calque_1
 62
1
100
AcDbSpline
 70
8
 71
3
 72
8
 73
4
 74
0
 40
0
 40
0
 40
0
 40
0
 40
1
 40
1
 40
1
 40
1
 10
119.466540
 20
208.644513
 30
0.0
 10
113.971092
 20
211.387395
 30
0.0
 10
108.955474
 20
218.188487
 30
0.0
 10
108.955474
 20
218.188487
 30
0.0
  0
LINE
  5
1b5
100
AcDbEntity
  8
Calque_1
 62
1
100
AcDbLine
 10
108.955474
 20
218.188487
 30
0.0
 11
108.955503
 21
218.188439
 31
0.0
  0
SPLINE
  5
1b6
100
AcDbEntity
  8
Calque_1
 62
1
100
AcDbSpline
 70
8
 71
3
 72
8
 73
4
 74
0
 40
0
 40
0
 40
0
 40
0
 40
1
 40
1
 40
1
 40
1
 10
103.569740
 20
229.512183
 30
0.0
 10
103.569740
 20
229.512183
 30
0.0
 10
100.343748
 20
218.968105
 30
0.0
 10
101.419808
 20
213.355290
 30
0.0
  0
SPLINE
  5
1b7
100
AcDbEntity
  8
Calque_1
 62
1
100
AcDbSpline
 70
8
 71
3
 72
8
 73
4
 74
0
 40
0
 40
0
 40
0
 40
0
 40
1
 40
1
 40
1
 40
1
 10
101.419808
 20
213.355290
 30
0.0
 10
102.495953
 20
207.742398
 30
0.0
 10
105.357334
 20
207.893783
 30
0.0
 10
110.361379
 20
197.677221
 30
0.0
  0
SPLINE
  5
1b8
100
AcDbEntity
  8
Calque_1
 62
1
100
AcDbSpline
 70
8
 71
3
 72
8
 73
4
 74
0
 40
0
 40
0
 40
0
 40
0
 40
1
 40
1
 40
1
 40
1
 10
110.361379
 20
197.677221
 30
0.0
 10
115.365405
 20
187.460726
 30
0.0
 10
111.792501
 20
179.234092
 30
0.0
 10
106.767103
 20
176.286756
 30
0.0
  0
SPLINE
  5
1b9
100
AcDbEntity
  8
Calque_1
 62
1
100
AcDbSpline
 70
8
 71
3
 72
8
 73
4
 74
0
 40
0
 40
0
 40
0
 40
0
 40
1
 40
1
 40
1
 40
1
 10
106.767103
 20
176.286756
 30
0.0
 10
101.741753
 20
173.339429
 30
0.0
 10
96.236563
 20
175.079446
 30
0.0
 10
94.752660
 20
179.095095
 30
0.0
  0
SPLINE
  5
1ba
100
AcDbEntity
  8
Calque_1
 62
1
100
AcDbSpline
 70
8
 71
3
 72
8
 73
4
 74
0
 40
0
 40
0
 40
0
 40
0
 40
1
 40
1
 40
1
 40
1
 10
94.752660
 20
179.095095
 30
0.0
 10
93.268785
 20
183.110734
 30
0.0
 10
94.884907
 20
186.216100
 30
0.0
 10
97.330974
 20
187.390408
 30
0.0
  0
SPLINE
  5
1bb
100
AcDbEntity
  8
Calque_1
 62
1
100
AcDbSpline
 70
8
 71
3
 72
8
 73
4
 74
0
 40
0
 40
0
 40
0
 40
0
 40
1
 40
1
 40
1
 40
1
 10
97.330974
 20
187.390408
 30
0.0
 10
99.777060
 20
188.565031
 30
0.0
 10
102.916080
 20
187.340262
 30
0.0
 10
103.300702
 20
185.027535
 30
0.0
  0
SPLINE
  5
1bc
100
AcDbEntity
  8
Calque_1
 62
1
100
AcDbSpline
 70
8
 71
3
 72
8
 73
4
 74
0
 40
0
 40
0
 40
0
 40
0
 40
1
 40
1
 40
1
 40
1
 10
103.300702
 20
185.027535
 30
0.0
 10
103.685324
 20
182.714799
 30
0.0
 10
102.035193
 20
181.139455
 30
0.0
 10
98.941678
 20
180.561644
 30
0.0
  0
SPLINE
  5
1bd
100
AcDbEntity
  8
Calque_1
 62
1
100
AcDbSpline
 70
8
 71
3
 72
8
 73
4
 74
0
 40
0
 40
0
 40
0
 40
0
 40
1
 40
1
 40
1
 40
1
 10
98.941678
 20
180.561644
 30
0.0
 10
101.235306
 20
176.746490
 30
0.0
 10
108.585167
 20
180.163772
 30
0.0
 10
108.576988
 20
186.444927
 30
0.0
  0
SPLINE
  5
1be
100
AcDbEntity
  8
Calque_1
 62
1
100
AcDbSpline
 70
8
 71
3
 72
8
 73
4
 74
0
 40
0
 40
0
 40
0
 40
0
 40
1
 40
1
 40
1
 40
1
 10
108.576988
 20
186.444927
 30
0.0
 10
108.573153
 20
189.218548
 30
0.0
 10
106.838505
 20
192.734241
 30
0.0
 10
103.989991
 20
194.433366
 30
0.0
  0
SPLINE
  5
1bf
100
AcDbEntity
  8
Calque_1
 62
1
100
AcDbSpline
 70
8
 71
3
 72
8
 73
4
 74
0
 40
0
 40
0
 40
0
 40
0
 40
1
 40
1
 40
1
 40
1
 10
103.989991
 20
194.433366
 30
0.0
 10
100.387709
 20
196.582062
 30
0.0
 10
94.626683
 20
196.531390
 30
0.0
 10
91.290285
 20
192.737127
 30
0.0
  0
SPLINE
  5
1c0
100
AcDbEntity
  8
Calque_1
 62
1
100
AcDbSpline
 70
8
 71
3
 72
8
 73
4
 74
0
 40
0
 40
0
 40
0
 40
0
 40
1
 40
1
 40
1
 40
1
 10
91.290285
 20
192.737127
 30
0.0
 10
87.953792
 20
188.942923
 30
0.0
 10
83.474161
 20
183.687154
 30
0.0
 10
88.499770
 20
173.072192
 30
0.0
  0
SPLINE
  5
1c1
100
AcDbEntity
  8
Calque_1
 62
1
100
AcDbSpline
 70
8
 71
3
 72
8
 73
4
 74
0
 40
0
 40
0
 40
0
 40
0
 40
1
 40
1
 40
1
 40
1
 10
88.499770
 20
173.072192
 30
0.0
 10
93.525388
 20
162.457163
 30
0.0
 10
110.175363
 20
165.158252
 30
0.0
 10
111.651116
 20
168.833124
 30
0.0
  0
SPLINE
  5
1c2
100
AcDbEntity
  8
Calque_1
 62
1
100
AcDbSpline
 70
8
 71
3
 72
8
 73
4
 74
0
 40
0
 40
0
 40
0
 40
0
 40
1
 40
1
 40
1
 40
1
 10
111.651116
 20
168.833124
 30
0.0
 10
110.075628
 20
165.182778
 30
0.0
 10
103.761893
 20
154.482626
 30
0.0
 10
110.808457
 20
148.457499
 30
0.0
  0
SPLINE
  5
1c3
100
AcDbEntity
  8
Calque_1
 62
1
100
AcDbSpline
 70
8
 71
3
 72
8
 73
4
 74
0
 40
0
 40
0
 40
0
 40
0
 40
1
 40
1
 40
1
 40
1
 10
110.808457
 20
148.457499
 30
0.0
 10
117.855174
 20
142.432305
 30
0.0
 10
127.606374
 20
148.250504
 30
0.0
 10
128.889975
 20
154.409365
 30
0.0
  0
SPLINE
  5
1c4
100
AcDbEntity
  8
Calque_1
 62
1
100
AcDbSpline
 70
8
 71
3
 72
8
 73
4
 74
0
 40
0
 40
0
 40
0
 40
0
 40
1
 40
1
 40
1
 40
1
 10
128.889975
 20
154.409365
 30
0.0
 10
130.173605
 20
160.568321
 30
0.0
 10
129.034389
 20
164.206299
 30
0.0
 10
126.215886
 20
165.353108
 30
0.0
  0
SPLINE
  5
1c5
100
AcDbEntity
  8
Calque_1
 62
1
100
AcDbSpline
 70
8
 71
3
 72
8
 73
4
 74
0
 40
0
 40
0
 40
0
 40
0
 40
1
 40
1
 40
1
 40
1
 10
126.215886
 20
165.353108
 30
0.0
 10
123.397355
 20
166.499927
 30
0.0
 10
120.184143
 20
167.068676
 30
0.0
 10
117.080820
 20
163.805502
 30
0.0
  0
SPLINE
  5
1c6
100
AcDbEntity
  8
Calque_1
 62
1
100
AcDbSpline
 70
8
 71
3
 72
8
 73
4
 74
0
 40
0
 40
0
 40
0
 40
0
 40
1
 40
1
 40
1
 40
1
 10
117.080820
 20
163.805502
 30
0.0
 10
115.553147
 20
162.199160
 30
0.0
 10
115.561940
 20
159.532090
 30
0.0
 10
116.533758
 20
157.876696
 30
0.0
  0
SPLINE
  5
1c7
100
AcDbEntity
  8
Calque_1
 62
1
100
AcDbSpline
 70
8
 71
3
 72
8
 73
4
 74
0
 40
0
 40
0
 40
0
 40
0
 40
1
 40
1
 40
1
 40
1
 10
116.533758
 20
157.876696
 30
0.0
 10
117.536115
 20
156.169268
 30
0.0
 10
119.533091
 20
155.498042
 30
0.0
 10
119.933408
 20
155.503123
 30
0.0
  0
SPLINE
  5
1c8
100
AcDbEntity
  8
Calque_1
 62
1
100
AcDbSpline
 70
8
 71
3
 72
8
 73
4
 74
0
 40
0
 40
0
 40
0
 40
0
 40
1
 40
1
 40
1
 40
1
 10
119.933408
 20
155.503123
 30
0.0
 10
120.721799
 20
155.512711
 30
0.0
 10
115.424016
 20
163.432980
 30
0.0
 10
121.581832
 20
162.303794
 30
0.0
  0
SPLINE
  5
1c9
100
AcDbEntity
  8
Calque_1
 62
1
100
AcDbSpline
 70
8
 71
3
 72
8
 73
4
 74
0
 40
0
 40
0
 40
0
 40
0
 40
1
 40
1
 40
1
 40
1
 10
121.581832
 20
162.303794
 30
0.0
 10
125.940778
 20
161.504501
 30
0.0
 10
126.260317
 20
155.706906
 30
0.0
 10
124.182467
 20
153.178258
 30
0.0
  0
SPLINE
  5
1ca
100
AcDbEntity
  8
Calque_1
 62
1
100
AcDbSpline
 70
8
 71
3
 72
8
 73
4
 74
0
 40
0
 40
0
 40
0
 40
0
 40
1
 40
1
 40
1
 40
1
 10
124.182467
 20
153.178258
 30
0.0
 10
122.178521
 20
150.739526
 30
0.0
 10
116.755567
 20
151.342437
 30
0.0
 10
114.906553
 20
153.743268
 30
0.0
  0
SPLINE
  5
1cb
100
AcDbEntity
  8
Calque_1
 62
1
100
AcDbSpline
 70
8
 71
3
 72
8
 73
4
 74
0
 40
0
 40
0
 40
0
 40
0
 40
1
 40
1
 40
1
 40
1
 10
114.906553
 20
153.743268
 30
0.0
 10
110.696872
 20
159.209483
 30
0.0
 10
115.326526
 20
166.947101
 30
0.0
 10
118.997026
 20
174.568186
 30
0.0
  0
SPLINE
  5
1cc
100
AcDbEntity
  8
Calque_1
 62
1
100
AcDbSpline
 70
8
 71
3
 72
8
 73
4
 74
0
 40
0
 40
0
 40
0
 40
0
 40
1
 40
1
 40
1
 40
1
 10
118.997026
 20
174.568186
 30
0.0
 10
121.348384
 20
179.450445
 30
0.0
 10
120.771935
 20
190.037065
 30
0.0
 10
118.219268
 20
197.110101
 30
0.0
  0
SPLINE
  5
1cd
100
AcDbEntity
  8
Calque_1
 62
1
100
AcDbSpline
 70
8
 71
3
 72
8
 73
4
 74
0
 40
0
 40
0
 40
0
 40
0
 40
1
 40
1
 40
1
 40
1
 10
118.219268
 20
197.110101
 30
0.0
 10
115.666612
 20
204.183118
 30
0.0
 10
106.900894
 20
209.610569
 30
0.0
 10
104.751153
 20
215.363954
 30
0.0
  0
SPLINE
  5
1ce
100
AcDbEntity
  8
Calque_1
 62
1
100
AcDbSpline
 70
8
 71
3
 72
8
 73
4
 74
0
 40
0
 40
0
 40
0
 40
0
 40
1
 40
1
 40
1
 40
1
 10
104.751153
 20
215.363954
 30
0.0
 10
102.601392
 20
221.117376
 30
0.0
 10
103.569635
 20
229.512231
 30
0.0
 10
103.569635
 20
229.512231
 30
0.0
  0
LINE
  5
1cf
100
AcDbEntity
  8
Calque_1
 62
1
100
AcDbLine
 10
103.569635
 20
229.512231
 30
0.0
 11
103.569740
 21
229.512183
 31
0.0
  0
SPLINE
  5
1d0
100
AcDbEntity
  8
Calque_1
 62
1
100
AcDbSpline
 70
8
 71
3
 72
8
 73
4
 74
0
 40
0
 40
0
 40
0
 40
0
 40
1
 40
1
 40
1
 40
1
 10
108.981208
 20
237.491150
 30
0.0
 10
108.981208
 20
237.491150
 30
0.0
 10
99.063139
 20
232.672805
 30
0.0
 10
95.685839
 20
228.062442
 30
0.0
  0
SPLINE
  5
1d1
100
AcDbEntity
  8
Calque_1
 62
1
100
AcDbSpline
 70
8
 71
3
 72
8
 73
4
 74
0
 40
0
 40
0
 40
0
 40
0
 40
1
 40
1
 40
1
 40
1
 10
95.685839
 20
228.062442
 30
0.0
 10
92.308548
 20
223.451955
 30
0.0
 10
94.368038
 20
221.459744
 30
0.0
 10
90.294554
 20
210.837821
 30
0.0
  0
SPLINE
  5
1d2
100
AcDbEntity
  8
Calque_1
 62
1
100
AcDbSpline
 70
8
 71
3
 72
8
 73
4
 74
0
 40
0
 40
0
 40
0
 40
0
 40
1
 40
1
 40
1
 40
1
 10
90.294554
 20
210.837821
 30
0.0
 10
86.221109
 20
200.215946
 30
0.0
 10
77.763798
 20
197.229846
 30
0.0
 10
72.183179
 20
198.902632
 30
0.0
  0
SPLINE
  5
1d3
100
AcDbEntity
  8
Calque_1
 62
1
100
AcDbSpline
 70
8
 71
3
 72
8
 73
4
 74
0
 40
0
 40
0
 40
0
 40
0
 40
1
 40
1
 40
1
 40
1
 10
72.183179
 20
198.902632
 30
0.0
 10
66.602608
 20
200.575381
 30
0.0
 10
64.127672
 20
205.791656
 30
0.0
 10
66.057666
 20
209.612976
 30
0.0
  0
SPLINE
  5
1d4
100
AcDbEntity
  8
Calque_1
 62
1
100
AcDbSpline
 70
8
 71
3
 72
8
 73
4
 74
0
 40
0
 40
0
 40
0
 40
0
 40
1
 40
1
 40
1
 40
1
 10
66.057666
 20
209.612976
 30
0.0
 10
67.987669
 20
213.434276
 30
0.0
 10
71.362237
 20
214.365634
 30
0.0
 10
73.887951
 20
213.374159
 30
0.0
  0
SPLINE
  5
1d5
100
AcDbEntity
  8
Calque_1
 62
1
100
AcDbSpline
 70
8
 71
3
 72
8
 73
4
 74
0
 40
0
 40
0
 40
0
 40
0
 40
1
 40
1
 40
1
 40
1
 10
73.887951
 20
213.374159
 30
0.0
 10
76.413906
 20
212.382906
 30
0.0
 10
77.654754
 20
209.250195
 30
0.0
 10
76.223153
 20
207.393559
 30
0.0
  0
SPLINE
  5
1d6
100
AcDbEntity
  8
Calque_1
 62
1
100
AcDbSpline
 70
8
 71
3
 72
8
 73
4
 74
0
 40
0
 40
0
 40
0
 40
0
 40
1
 40
1
 40
1
 40
1
 10
76.223153
 20
207.393559
 30
0.0
 10
74.791533
 20
205.536903
 30
0.0
 10
72.514195
 20
205.672420
 30
0.0
 10
69.984348
 20
207.544215
 30
0.0
  0
SPLINE
  5
1d7
100
AcDbEntity
  8
Calque_1
 62
1
100
AcDbSpline
 70
8
 71
3
 72
8
 73
4
 74
0
 40
0
 40
0
 40
0
 40
0
 40
1
 40
1
 40
1
 40
1
 10
69.984348
 20
207.544215
 30
0.0
 10
68.752618
 20
203.266498
 30
0.0
 10
76.260335
 20
200.211613
 30
0.0
 10
80.854283
 20
204.495140
 30
0.0
  0
SPLINE
  5
1d8
100
AcDbEntity
  8
Calque_1
 62
1
100
AcDbSpline
 70
8
 71
3
 72
8
 73
4
 74
0
 40
0
 40
0
 40
0
 40
0
 40
1
 40
1
 40
1
 40
1
 10
80.854283
 20
204.495140
 30
0.0
 10
82.882707
 20
206.386820
 30
0.0
 10
84.275832
 20
210.051281
 30
0.0
 10
83.580185
 20
213.294301
 30
0.0
  0
SPLINE
  5
1d9
100
AcDbEntity
  8
Calque_1
 62
1
100
AcDbSpline
 70
8
 71
3
 72
8
 73
4
 74
0
 40
0
 40
0
 40
0
 40
0
 40
1
 40
1
 40
1
 40
1
 10
83.580185
 20
213.294301
 30
0.0
 10
82.700411
 20
217.395436
 30
0.0
 10
78.739970
 20
221.579565
 30
0.0
 10
73.689413
 20
221.438775
 30
0.0
  0
SPLINE
  5
1da
100
AcDbEntity
  8
Calque_1
 62
1
100
AcDbSpline
 70
8
 71
3
 72
8
 73
4
 74
0
 40
0
 40
0
 40
0
 40
0
 40
1
 40
1
 40
1
 40
1
 10
73.689413
 20
221.438775
 30
0.0
 10
68.638837
 20
221.298091
 30
0.0
 10
61.739497
 20
220.999157
 30
0.0
 10
57.388968
 20
210.090112
 30
0.0
  0
SPLINE
  5
1db
100
AcDbEntity
  8
Calque_1
 62
1
100
AcDbSpline
 70
8
 71
3
 72
8
 73
4
 74
0
 40
0
 40
0
 40
0
 40
0
 40
1
 40
1
 40
1
 40
1
 10
57.388968
 20
210.090112
 30
0.0
 10
53.038392
 20
199.181029
 30
0.0
 10
66.355171
 20
188.828202
 30
0.0
 10
70.051176
 20
190.250177
 30
0.0
  0
SPLINE
  5
1dc
100
AcDbEntity
  8
Calque_1
 62
1
100
AcDbSpline
 70
8
 71
3
 72
8
 73
4
 74
0
 40
0
 40
0
 40
0
 40
0
 40
1
 40
1
 40
1
 40
1
 10
70.051176
 20
190.250177
 30
0.0
 10
66.305199
 20
188.917936
 30
0.0
 10
54.170052
 20
186.254366
 30
0.0
 10
54.556822
 20
176.991175
 30
0.0
  0
SPLINE
  5
1dd
100
AcDbEntity
  8
Calque_1
 62
1
100
AcDbSpline
 70
8
 71
3
 72
8
 73
4
 74
0
 40
0
 40
0
 40
0
 40
0
 40
1
 40
1
 40
1
 40
1
 10
54.556822
 20
176.991175
 30
0.0
 10
54.943649
 20
167.727831
 30
0.0
 10
65.844841
 20
164.549578
 30
0.0
 10
71.228945
 20
167.803893
 30
0.0
  0
SPLINE
  5
1de
100
AcDbEntity
  8
Calque_1
 62
1
100
AcDbSpline
 70
8
 71
3
 72
8
 73
4
 74
0
 40
0
 40
0
 40
0
 40
0
 40
1
 40
1
 40
1
 40
1
 10
71.228945
 20
167.803893
 30
0.0
 10
76.613144
 20
171.058256
 30
0.0
 10
78.501315
 20
174.369974
 30
0.0
 10
77.421651
 20
177.214882
 30
0.0
  0
SPLINE
  5
1df
100
AcDbEntity
  8
Calque_1
 62
1
100
AcDbSpline
 70
8
 71
3
 72
8
 73
4
 74
0
 40
0
 40
0
 40
0
 40
0
 40
1
 40
1
 40
1
 40
1
 10
77.421651
 20
177.214882
 30
0.0
 10
76.341986
 20
180.059809
 30
0.0
 10
74.570223
 20
182.800084
 30
0.0
 10
70.067293
 20
182.850296
 30
0.0
  0
SPLINE
  5
1e0
100
AcDbEntity
  8
Calque_1
 62
1
100
AcDbSpline
 70
8
 71
3
 72
8
 73
4
 74
0
 40
0
 40
0
 40
0
 40
0
 40
1
 40
1
 40
1
 40
1
 10
70.067293
 20
182.850296
 30
0.0
 10
67.850647
 20
182.875033
 30
0.0
 10
65.903616
 20
181.052271
 30
0.0
 10
65.353237
 20
179.213296
 30
0.0
  0
SPLINE
  5
1e1
100
AcDbEntity
  8
Calque_1
 62
1
100
AcDbSpline
 70
8
 71
3
 72
8
 73
4
 74
0
 40
0
 40
0
 40
0
 40
0
 40
1
 40
1
 40
1
 40
1
 10
65.353237
 20
179.213296
 30
0.0
 10
64.785551
 20
177.316515
 30
0.0
 10
65.654002
 20
175.397077
 30
0.0
 10
65.930347
 20
175.107395
 30
0.0
  0
SPLINE
  5
1e2
100
AcDbEntity
  8
Calque_1
 62
1
100
AcDbSpline
 70
8
 71
3
 72
8
 73
4
 74
0
 40
0
 40
0
 40
0
 40
0
 40
1
 40
1
 40
1
 40
1
 10
65.930347
 20
175.107395
 30
0.0
 10
66.474273
 20
174.536603
 30
0.0
 10
68.666201
 20
183.809833
 30
0.0
 10
72.032878
 20
178.531638
 30
0.0
  0
SPLINE
  5
1e3
100
AcDbEntity
  8
Calque_1
 62
1
100
AcDbSpline
 70
8
 71
3
 72
8
 73
4
 74
0
 40
0
 40
0
 40
0
 40
0
 40
1
 40
1
 40
1
 40
1
 10
72.032878
 20
178.531638
 30
0.0
 10
74.416077
 20
174.795383
 30
0.0
 10
70.388280
 20
170.613153
 30
0.0
 10
67.121568
 20
170.412668
 30
0.0
  0
SPLINE
  5
1e4
100
AcDbEntity
  8
Calque_1
 62
1
100
AcDbSpline
 70
8
 71
3
 72
8
 73
4
 74
0
 40
0
 40
0
 40
0
 40
0
 40
1
 40
1
 40
1
 40
1
 10
67.121568
 20
170.412668
 30
0.0
 10
63.971042
 20
170.219317
 30
0.0
 10
60.719441
 20
174.600968
 30
0.0
 10
61.218304
 20
177.589935
 30
0.0
  0
SPLINE
  5
1e5
100
AcDbEntity
  8
Calque_1
 62
1
100
AcDbSpline
 70
8
 71
3
 72
8
 73
4
 74
0
 40
0
 40
0
 40
0
 40
0
 40
1
 40
1
 40
1
 40
1
 10
61.218304
 20
177.589935
 30
0.0
 10
62.354202
 20
184.395131
 30
0.0
 10
71.173095
 20
186.274376
 30
0.0
 10
79.253454
 20
188.776629
 30
0.0
  0
SPLINE
  5
1e6
100
AcDbEntity
  8
Calque_1
 62
1
100
AcDbSpline
 70
8
 71
3
 72
8
 73
4
 74
0
 40
0
 40
0
 40
0
 40
0
 40
1
 40
1
 40
1
 40
1
 10
79.253454
 20
188.776629
 30
0.0
 10
84.429901
 20
190.379682
 30
0.0
 10
91.789608
 20
198.011420
 30
0.0
 10
95.230601
 20
204.697494
 30
0.0
  0
SPLINE
  5
1e7
100
AcDbEntity
  8
Calque_1
 62
1
100
AcDbSpline
 70
8
 71
3
 72
8
 73
4
 74
0
 40
0
 40
0
 40
0
 40
0
 40
1
 40
1
 40
1
 40
1
 10
95.230601
 20
204.697494
 30
0.0
 10
98.671575
 20
211.383550
 30
0.0
 10
96.676373
 20
221.498595
 30
0.0
 10
99.425411
 20
226.990918
 30
0.0
  0
SPLINE
  5
1e8
100
AcDbEntity
  8
Calque_1
 62
1
100
AcDbSpline
 70
8
 71
3
 72
8
 73
4
 74
0
 40
0
 40
0
 40
0
 40
0
 40
1
 40
1
 40
1
 40
1
 10
99.425411
 20
226.990918
 30
0.0
 10
102.174468
 20
232.483279
 30
0.0
 10
108.981170
 20
237.491265
 30
0.0
 10
108.981170
 20
237.491265
 30
0.0
  0
LINE
  5
1e9
100
AcDbEntity
  8
Calque_1
 62
1
100
AcDbLine
 10
108.981170
 20
237.491265
 30
0.0
 11
108.981208
 21
237.491150
 31
0.0
  0
SPLINE
  5
1ea
100
AcDbEntity
  8
Calque_1
 62
1
100
AcDbSpline
 70
8
 71
3
 72
8
 73
4
 74
0
 40
0
 40
0
 40
0
 40
0
 40
1
 40
1
 40
1
 40
1
 10
191.663845
 20
150.179419
 30
0.0
 10
185.884044
 20
144.670255
 30
0.0
 10
169.300447
 20
150.641159
 30
0.0
 10
162.279988
 20
146.837189
 30
0.0
  0
SPLINE
  5
1eb
100
AcDbEntity
  8
Calque_1
 62
1
100
AcDbSpline
 70
8
 71
3
 72
8
 73
4
 74
0
 40
0
 40
0
 40
0
 40
0
 40
1
 40
1
 40
1
 40
1
 10
162.279988
 20
146.837189
 30
0.0
 10
155.135288
 20
142.965899
 30
0.0
 10
150.836423
 20
125.692183
 30
0.0
 10
142.939052
 20
123.777715
 30
0.0
  0
SPLINE
  5
1ec
100
AcDbEntity
  8
Calque_1
 62
1
100
AcDbSpline
 70
8
 71
3
 72
8
 73
4
 74
0
 40
0
 40
0
 40
0
 40
0
 40
1
 40
1
 40
1
 40
1
 10
142.939052
 20
123.777715
 30
0.0
 10
135.179016
 20
121.896540
 30
0.0
 10
123.802650
 20
135.359292
 30
0.0
 10
115.820773
 20
135.575186
 30
0.0
  0
SPLINE
  5
1ed
100
AcDbEntity
  8
Calque_1
 62
1
100
AcDbSpline
 70
8
 71
3
 72
8
 73
4
 74
0
 40
0
 40
0
 40
0
 40
0
 40
1
 40
1
 40
1
 40
1
 10
115.820773
 20
135.575186
 30
0.0
 10
107.697635
 20
135.794901
 30
0.0
 10
95.337850
 20
122.984857
 30
0.0
 10
87.541292
 20
125.275564
 30
0.0
  0
SPLINE
  5
1ee
100
AcDbEntity
  8
Calque_1
 62
1
100
AcDbSpline
 70
8
 71
3
 72
8
 73
4
 74
0
 40
0
 40
0
 40
0
 40
0
 40
1
 40
1
 40
1
 40
1
 10
87.541292
 20
125.275564
 30
0.0
 10
79.880317
 20
127.526436
 30
0.0
 10
76.759474
 20
144.873705
 30
0.0
 10
69.954911
 20
149.051615
 30
0.0
  0
SPLINE
  5
1ef
100
AcDbEntity
  8
Calque_1
 62
1
100
AcDbSpline
 70
8
 71
3
 72
8
 73
4
 74
0
 40
0
 40
0
 40
0
 40
0
 40
1
 40
1
 40
1
 40
1
 10
69.954911
 20
149.051615
 30
0.0
 10
63.029925
 20
153.303462
 30
0.0
 10
45.921014
 20
148.389532
 30
0.0
 10
40.314351
 20
154.271618
 30
0.0
  0
SPLINE
  5
1f0
100
AcDbEntity
  8
Calque_1
 62
1
100
AcDbSpline
 70
8
 71
3
 72
8
 73
4
 74
0
 40
0
 40
0
 40
0
 40
0
 40
1
 40
1
 40
1
 40
1
 10
40.314351
 20
154.271618
 30
0.0
 10
34.805185
 20
160.051420
 30
0.0
 10
40.776089
 20
176.635017
 30
0.0
 10
36.972121
 20
183.655475
 30
0.0
  0
SPLINE
  5
1f1
100
AcDbEntity
  8
Calque_1
 62
1
100
AcDbSpline
 70
8
 71
3
 72
8
 73
4
 74
0
 40
0
 40
0
 40
0
 40
0
 40
1
 40
1
 40
1
 40
1
 10
36.972121
 20
183.655475
 30
0.0
 10
33.100831
 20
190.800175
 30
0.0
 10
15.827117
 20
195.099042
 30
0.0
 10
13.912647
 20
202.996410
 30
0.0
  0
SPLINE
  5
1f2
100
AcDbEntity
  8
Calque_1
 62
1
100
AcDbSpline
 70
8
 71
3
 72
8
 73
4
 74
0
 40
0
 40
0
 40
0
 40
0
 40
1
 40
1
 40
1
 40
1
 10
13.912647
 20
202.996410
 30
0.0
 10
12.031469
 20
210.756448
 30
0.0
 10
25.494224
 20
222.132813
 30
0.0
 10
25.710118
 20
230.114690
 30
0.0
  0
SPLINE
  5
1f3
100
AcDbEntity
  8
Calque_1
 62
1
100
AcDbSpline
 70
8
 71
3
 72
8
 73
4
 74
0
 40
0
 40
0
 40
0
 40
0
 40
1
 40
1
 40
1
 40
1
 10
25.710118
 20
230.114690
 30
0.0
 10
25.929833
 20
238.237828
 30
0.0
 10
13.119790
 20
250.597615
 30
0.0
 10
15.410496
 20
258.394170
 30
0.0
  0
SPLINE
  5
1f4
100
AcDbEntity
  8
Calque_1
 62
1
100
AcDbSpline
 70
8
 71
3
 72
8
 73
4
 74
0
 40
0
 40
0
 40
0
 40
0
 40
1
 40
1
 40
1
 40
1
 10
15.410496
 20
258.394170
 30
0.0
 10
17.661367
 20
266.055147
 30
0.0
 10
35.008637
 20
269.175992
 30
0.0
 10
39.186545
 20
275.980553
 30
0.0
  0
SPLINE
  5
1f5
100
AcDbEntity
  8
Calque_1
 62
1
100
AcDbSpline
 70
8
 71
3
 72
8
 73
4
 74
0
 40
0
 40
0
 40
0
 40
0
 40
1
 40
1
 40
1
 40
1
 10
39.186545
 20
275.980553
 30
0.0
 10
43.438393
 20
282.905539
 30
0.0
 10
38.524463
 20
300.014450
 30
0.0
 10
44.406552
 20
305.621114
 30
0.0
  0
SPLINE
  5
1f6
100
AcDbEntity
  8
Calque_1
 62
1
100
AcDbSpline
 70
8
 71
3
 72
8
 73
4
 74
0
 40
0
 40
0
 40
0
 40
0
 40
1
 40
1
 40
1
 40
1
 10
44.406552
 20
305.621114
 30
0.0
 10
50.186352
 20
311.130278
 30
0.0
 10
66.769949
 20
305.159373
 30
0.0
 10
73.790407
 20
308.963341
 30
0.0
  0
SPLINE
  5
1f7
100
AcDbEntity
  8
Calque_1
 62
1
100
AcDbSpline
 70
8
 71
3
 72
8
 73
4
 74
0
 40
0
 40
0
 40
0
 40
0
 40
1
 40
1
 40
1
 40
1
 10
73.790407
 20
308.963341
 30
0.0
 10
80.935107
 20
312.834632
 30
0.0
 10
85.233973
 20
330.108349
 30
0.0
 10
93.131343
 20
332.022817
 30
0.0
  0
SPLINE
  5
1f8
100
AcDbEntity
  8
Calque_1
 62
1
100
AcDbSpline
 70
8
 71
3
 72
8
 73
4
 74
0
 40
0
 40
0
 40
0
 40
0
 40
1
 40
1
 40
1
 40
1
 10
93.131343
 20
332.022817
 30
0.0
 10
100.891380
 20
333.903993
 30
0.0
 10
112.267745
 20
320.441239
 30
0.0
 10
120.249622
 20
320.225345
 30
0.0
  0
SPLINE
  5
1f9
100
AcDbEntity
  8
Calque_1
 62
1
100
AcDbSpline
 70
8
 71
3
 72
8
 73
4
 74
0
 40
0
 40
0
 40
0
 40
0
 40
1
 40
1
 40
1
 40
1
 10
120.249622
 20
320.225345
 30
0.0
 10
128.372760
 20
320.005630
 30
0.0
 10
140.732545
 20
332.815674
 30
0.0
 10
148.529103
 20
330.524967
 30
0.0
  0
SPLINE
  5
1fa
100
AcDbEntity
  8
Calque_1
 62
1
100
AcDbSpline
 70
8
 71
3
 72
8
 73
4
 74
0
 40
0
 40
0
 40
0
 40
0
 40
1
 40
1
 40
1
 40
1
 10
148.529103
 20
330.524967
 30
0.0
 10
156.190079
 20
328.274097
 30
0.0
 10
159.310922
 20
310.926828
 30
0.0
 10
166.115485
 20
306.748918
 30
0.0
  0
SPLINE
  5
1fb
100
AcDbEntity
  8
Calque_1
 62
1
100
AcDbSpline
 70
8
 71
3
 72
8
 73
4
 74
0
 40
0
 40
0
 40
0
 40
0
 40
1
 40
1
 40
1
 40
1
 10
166.115485
 20
306.748918
 30
0.0
 10
173.040471
 20
302.497070
 30
0.0
 10
190.149382
 20
307.411001
 30
0.0
 10
195.756044
 20
301.528912
 30
0.0
  0
SPLINE
  5
1fc
100
AcDbEntity
  8
Calque_1
 62
1
100
AcDbSpline
 70
8
 71
3
 72
8
 73
4
 74
0
 40
0
 40
0
 40
0
 40
0
 40
1
 40
1
 40
1
 40
1
 10
195.756044
 20
301.528912
 30
0.0
 10
201.265210
 20
295.749111
 30
0.0
 10
195.294306
 20
279.165514
 30
0.0
 10
199.098275
 20
272.145058
 30
0.0
  0
SPLINE
  5
1fd
100
AcDbEntity
  8
Calque_1
 62
1
100
AcDbSpline
 70
8
 71
3
 72
8
 73
4
 74
0
 40
0
 40
0
 40
0
 40
0
 40
1
 40
1
 40
1
 40
1
 10
199.098275
 20
272.145058
 30
0.0
 10
202.969564
 20
265.000357
 30
0.0
 10
220.243279
 20
260.701491
 30
0.0
 10
222.157748
 20
252.804121
 30
0.0
  0
SPLINE
  5
1fe
100
AcDbEntity
  8
Calque_1
 62
1
100
AcDbSpline
 70
8
 71
3
 72
8
 73
4
 74
0
 40
0
 40
0
 40
0
 40
0
 40
1
 40
1
 40
1
 40
1
 10
222.157748
 20
252.804121
 30
0.0
 10
224.038926
 20
245.044084
 30
0.0
 10
210.576172
 20
233.667719
 30
0.0
 10
210.360278
 20
225.685842
 30
0.0
  0
SPLINE
  5
1ff
100
AcDbEntity
  8
Calque_1
 62
1
100
AcDbSpline
 70
8
 71
3
 72
8
 73
4
 74
0
 40
0
 40
0
 40
0
 40
0
 40
1
 40
1
 40
1
 40
1
 10
210.360278
 20
225.685842
 30
0.0
 10
210.140562
 20
217.562703
 30
0.0
 10
222.950606
 20
205.202918
 30
0.0
 10
220.659899
 20
197.406360
 30
0.0
  0
SPLINE
  5
200
100
AcDbEntity
  8
Calque_1
 62
1
100
AcDbSpline
 70
8
 71
3
 72
8
 73
4
 74
0
 40
0
 40
0
 40
0
 40
0
 40
1
 40
1
 40
1
 40
1
 10
220.659899
 20
197.406360
 30
0.0
 10
218.409026
 20
189.745385
 30
0.0
 10
201.061758
 20
186.624542
 30
0.0
 10
196.883848
 20
179.819979
 30
0.0
  0
SPLINE
  5
201
100
AcDbEntity
  8
Calque_1
 62
1
100
AcDbSpline
 70
8
 71
3
 72
8
 73
4
 74
0
 40
0
 40
0
 40
0
 40
0
 40
1
 40
1
 40
1
 40
1
 10
196.883848
 20
179.819979
 30
0.0
 10
192.632003
 20
172.894992
 30
0.0
 10
197.545933
 20
155.786080
 30
0.0
 10
191.663845
 20
150.179419
 30
0.0
  0
LINE
  5
202
100
AcDbEntity
  8
Calque_1
 62
1
100
AcDbLine
 10
191.663845
 20
150.179419
 30
0.0
 11
191.663845
 21
150.179419
 31
0.0
  0
ENDSEC
  0
SECTION
  2
OBJECTS
  0
DICTIONARY
  5
C
330
0
100
AcDbDictionary
  3
ACAD_GROUP
350
D
  3
ACAD_MLINESTYLE
350
17
  0
DICTIONARY
  5
D
330
C
100
AcDbDictionary
  0
DICTIONARY
  5
1A
330
C
100
AcDbDictionary
  0
DICTIONARY
  5
17
330
C
100
AcDbDictionary
  3
STANDARD
350
18
  0
DICTIONARY
  5
19
330
C
100
AcDbDictionary
  0
ENDSEC
  0
EOF
