  0
SECTION
  2
HEADER
  9
$ACADVER
  1
AC1014
  9
$HANDSEED
  5
FFFF
  9
$MEASUREMENT
 70
     1
  0
ENDSEC
  0
SECTION
  2
TABLES
  0
TABLE
  2
VPORT
  5
8
330
0
100
AcDbSymbolTable
 70
     4
  0
VPORT
  5
2E
330
8
100
AcDbSymbolTableRecord
100
AcDbViewportTableRecord
  2
*ACTIVE
 70
     0
 10
0.0
 20
0.0
 11
1.0
 21
1.0
 12
210.0
 22
148.5
 13
0.0
 23
0.0
 14
10.0
 24
10.0
 15
10.0
 25
10.0
 16
0.0
 26
0.0
 36
1.0
 17
0.0
 27
0.0
 37
0.0
 40
341.0
 41
1.24
 42
50.0
 43
0.0
 44
0.0
 50
0.0
 51
0.0
 71
     0
 72
   100
 73
     1
 74
     3
 75
     0
 76
     0
 77
     0
 78
     0
  0
ENDTAB
  0
TABLE
  2
LTYPE
  5
5
330
0
100
AcDbSymbolTable
 70
     1
  0
LTYPE
  5
14
330
5
100
AcDbSymbolTableRecord
100
AcDbLinetypeTableRecord
  2
BYBLOCK
 70
     0
  3

 72
    65
 73
     0
 40
0.0
  0
LTYPE
  5
15
330
5
100
AcDbSymbolTableRecord
100
AcDbLinetypeTableRecord
  2
BYLAYER
 70
     0
  3

 72
    65
 73
     0
 40
0.0
  0
LTYPE
  5
16
330
5
100
AcDbSymbolTableRecord
100
AcDbLinetypeTableRecord
  2
CONTINUOUS
 70
     0
  3
Solid line
 72
    65
 73
     0
 40
0.0
  0
ENDTAB
  0
TABLE
  2
LAYER
  5
2
100
AcDbSymbolTable
 70
2
  0
LAYER
  5
50
100
AcDbSymbolTableRecord
100
AcDbLayerTableRecord
  2
0
 70
0
  6
CONTINUOUS
  0
LAYER
  5
51
100
AcDbSymbolTableRecord
100
AcDbLayerTableRecord
  2
Calque_1
 70
0
  6
CONTINUOUS
  0
ENDTAB
  0
TABLE
  2
STYLE
  5
3
330
0
100
AcDbSymbolTable
 70
     1
  0
STYLE
  5
11
330
3
100
AcDbSymbolTableRecord
100
AcDbTextStyleTableRecord
  2
STANDARD
 70
     0
 40
0.0
 41
1.0
 50
0.0
 71
     0
 42
2.5
  3
txt
  4

  0
ENDTAB
  0
TABLE
  2
VIEW
  5
6
330
0
100
AcDbSymbolTable
 70
     0
  0
ENDTAB
  0
TABLE
  2
UCS
  5
7
330
0
100
AcDbSymbolTable
 70
     0
  0
ENDTAB
  0
TABLE
  2
APPID
  5
9
330
0
100
AcDbSymbolTable
 70
     2
  0
APPID
  5
12
330
9
100
AcDbSymbolTableRecord
100
AcDbRegAppTableRecord
  2
ACAD
 70
     0
  0
ENDTAB
  0
TABLE
  2
DIMSTYLE
  5
A
330
0
100
AcDbSymbolTable
 70
     1
  0
DIMSTYLE
105
27
330
A
100
AcDbSymbolTableRecord
100
AcDbDimStyleTableRecord
  2
ISO-25
 70
     0
  3

  4

  5

  6

  7

 40
1.0
 41
2.5
 42
0.625
 43
3.75
 44
1.25
 45
0.0
 46
0.0
 47
0.0
 48
0.0
140
2.5
141
2.5
142
0.0
143
0.03937007874016
144
1.0
145
0.0
146
1.0
147
0.625
 71
     0
 72
     0
 73
     0
 74
     0
 75
     0
 76
     0
 77
     1
 78
     8
170
     0
171
     3
172
     1
173
     0
174
     0
175
     0
176
     0
177
     0
178
     0
270
     2
271
     2
272
     2
273
     2
274
     3
340
11
275
     0
280
     0
281
     0
282
     0
283
     0
284
     8
285
     0
286
     0
287
     3
288
     0
  0
ENDTAB
  0
TABLE
  2
BLOCK_RECORD
  5
1
330
0
100
AcDbSymbolTable
 70
     1
  0
BLOCK_RECORD
  5
1F
330
1
100
AcDbSymbolTableRecord
100
AcDbBlockTableRecord
  2
*MODEL_SPACE
  0
BLOCK_RECORD
  5
1B
330
1
100
AcDbSymbolTableRecord
100
AcDbBlockTableRecord
  2
*PAPER_SPACE
  0
ENDTAB
  0
ENDSEC
  0
SECTION
  2
BLOCKS
  0
BLOCK
  5
20
330
1F
100
AcDbEntity
  8
0
100
AcDbBlockBegin
  2
*MODEL_SPACE
 70
     0
 10
0.0
 20
0.0
 30
0.0
  3
*MODEL_SPACE
  1

  0
ENDBLK
  5
21
330
1F
100
AcDbEntity
  8
0
100
AcDbBlockEnd
  0
BLOCK
  5
1C
330
1B
100
AcDbEntity
 67
     1
  8
0
100
AcDbBlockBegin
  2
*PAPER_SPACE
  1

  0
ENDBLK
  5
1D
330
1B
100
AcDbEntity
 67
     1
  8
0
100
AcDbBlockEnd
  0
ENDSEC
  0
SECTION
  2
ENTITIES
  0
LINE
  5
100
100
AcDbEntity
  8
Calque_1
 62
7
100
AcDbLine
 10
543.544845
 20
-16.793688
 30
0.0
 11
543.544845
 21
-56.793693
 31
0.0
  0
LINE
  5
101
100
AcDbEntity
  8
Calque_1
 62
7
100
AcDbLine
 10
433.544839
 20
-6.793680
 30
0.0
 11
433.544839
 21
-16.793688
 31
0.0
  0
LINE
  5
102
100
AcDbEntity
  8
Calque_1
 62
7
100
AcDbLine
 10
408.544861
 20
-81.793700
 30
0.0
 11
408.544861
 21
-86.793690
 31
0.0
  0
LINE
  5
103
100
AcDbEntity
  8
Calque_1
 62
7
100
AcDbLine
 10
518.544838
 20
13.206308
 30
0.0
 11
518.544838
 21
8.206290
 31
0.0
  0
LINE
  5
104
100
AcDbEntity
  8
Calque_1
 62
7
100
AcDbLine
 10
423.544831
 20
-16.793688
 30
0.0
 11
423.544831
 21
-6.793680
 31
0.0
  0
LINE
  5
105
100
AcDbEntity
  8
Calque_1
 62
7
100
AcDbLine
 10
408.544861
 20
8.206290
 30
0.0
 11
408.544861
 21
13.206308
 31
0.0
  0
LINE
  5
106
100
AcDbEntity
  8
Calque_1
 62
7
100
AcDbLine
 10
373.544874
 20
-81.793700
 30
0.0
 11
373.544874
 21
-66.793701
 31
0.0
  0
LINE
  5
107
100
AcDbEntity
  8
Calque_1
 62
7
100
AcDbLine
 10
398.544881
 20
-86.793690
 30
0.0
 11
398.544881
 21
-81.793700
 31
0.0
  0
LINE
  5
108
100
AcDbEntity
  8
Calque_1
 62
7
100
AcDbLine
 10
373.544874
 20
-6.793680
 30
0.0
 11
373.544874
 21
8.206290
 31
0.0
  0
LINE
  5
109
100
AcDbEntity
  8
Calque_1
 62
7
100
AcDbLine
 10
408.544861
 20
13.206308
 30
0.0
 11
398.544881
 21
13.206308
 31
0.0
  0
LINE
  5
10a
100
AcDbEntity
  8
Calque_1
 62
7
100
AcDbLine
 10
373.544874
 20
-66.793701
 30
0.0
 11
368.544884
 21
-66.793701
 31
0.0
  0
LINE
  5
10b
100
AcDbEntity
  8
Calque_1
 62
7
100
AcDbLine
 10
543.544845
 20
-6.793680
 30
0.0
 11
548.544835
 21
-6.793680
 31
0.0
  0
LINE
  5
10c
100
AcDbEntity
  8
Calque_1
 62
7
100
AcDbLine
 10
373.544874
 20
8.206290
 30
0.0
 11
398.544881
 21
8.206290
 31
0.0
  0
LINE
  5
10d
100
AcDbEntity
  8
Calque_1
 62
7
100
AcDbLine
 10
493.544832
 20
-56.793693
 30
0.0
 11
493.544832
 21
-66.793701
 31
0.0
  0
LINE
  5
10e
100
AcDbEntity
  8
Calque_1
 62
7
100
AcDbLine
 10
518.544838
 20
8.206290
 30
0.0
 11
543.544845
 21
8.206290
 31
0.0
  0
LINE
  5
10f
100
AcDbEntity
  8
Calque_1
 62
7
100
AcDbLine
 10
483.544852
 20
-66.793701
 30
0.0
 11
483.544852
 21
-56.793693
 31
0.0
  0
LINE
  5
110
100
AcDbEntity
  8
Calque_1
 62
7
100
AcDbLine
 10
548.544835
 20
-6.793680
 30
0.0
 11
548.544835
 21
-16.793688
 31
0.0
  0
LINE
  5
111
100
AcDbEntity
  8
Calque_1
 62
7
100
AcDbLine
 10
373.544874
 20
-56.793693
 30
0.0
 11
373.544874
 21
-16.793688
 31
0.0
  0
LINE
  5
112
100
AcDbEntity
  8
Calque_1
 62
7
100
AcDbLine
 10
548.544835
 20
-16.793688
 30
0.0
 11
543.544845
 21
-16.793688
 31
0.0
  0
LINE
  5
113
100
AcDbEntity
  8
Calque_1
 62
7
100
AcDbLine
 10
483.544852
 20
-6.793680
 30
0.0
 11
493.544832
 21
-6.793680
 31
0.0
  0
LINE
  5
114
100
AcDbEntity
  8
Calque_1
 62
7
100
AcDbLine
 10
548.544835
 20
-56.793693
 30
0.0
 11
543.544845
 21
-56.793693
 31
0.0
  0
LINE
  5
115
100
AcDbEntity
  8
Calque_1
 62
7
100
AcDbLine
 10
423.544831
 20
-66.793701
 30
0.0
 11
423.544831
 21
-56.793693
 31
0.0
  0
LINE
  5
116
100
AcDbEntity
  8
Calque_1
 62
7
100
AcDbLine
 10
508.544830
 20
-81.793700
 30
0.0
 11
463.544835
 21
-81.793700
 31
0.0
  0
LINE
  5
117
100
AcDbEntity
  8
Calque_1
 62
7
100
AcDbLine
 10
368.544884
 20
-6.793680
 30
0.0
 11
368.544884
 21
-16.793688
 31
0.0
  0
LINE
  5
118
100
AcDbEntity
  8
Calque_1
 62
7
100
AcDbLine
 10
433.544839
 20
-16.793688
 30
0.0
 11
423.544831
 21
-16.793688
 31
0.0
  0
LINE
  5
119
100
AcDbEntity
  8
Calque_1
 62
7
100
AcDbLine
 10
508.544830
 20
13.206308
 30
0.0
 11
518.544838
 21
13.206308
 31
0.0
  0
LINE
  5
11a
100
AcDbEntity
  8
Calque_1
 62
7
100
AcDbLine
 10
423.544831
 20
-56.793693
 30
0.0
 11
433.544839
 21
-56.793693
 31
0.0
  0
LINE
  5
11b
100
AcDbEntity
  8
Calque_1
 62
7
100
AcDbLine
 10
368.544884
 20
-66.793701
 30
0.0
 11
368.544884
 21
-56.793693
 31
0.0
  0
LINE
  5
11c
100
AcDbEntity
  8
Calque_1
 62
7
100
AcDbLine
 10
543.544845
 20
-66.793701
 30
0.0
 11
548.544835
 21
-66.793701
 31
0.0
  0
LINE
  5
11d
100
AcDbEntity
  8
Calque_1
 62
7
100
AcDbLine
 10
368.544884
 20
-56.793693
 30
0.0
 11
373.544874
 21
-56.793693
 31
0.0
  0
LINE
  5
11e
100
AcDbEntity
  8
Calque_1
 62
7
100
AcDbLine
 10
548.544835
 20
-66.793701
 30
0.0
 11
548.544835
 21
-56.793693
 31
0.0
  0
LINE
  5
11f
100
AcDbEntity
  8
Calque_1
 62
7
100
AcDbLine
 10
483.544852
 20
-16.793688
 30
0.0
 11
483.544852
 21
-6.793680
 31
0.0
  0
LINE
  5
120
100
AcDbEntity
  8
Calque_1
 62
7
100
AcDbLine
 10
453.544855
 20
-86.793690
 30
0.0
 11
453.544855
 21
-81.793700
 31
0.0
  0
LINE
  5
121
100
AcDbEntity
  8
Calque_1
 62
7
100
AcDbLine
 10
398.544881
 20
-81.793700
 30
0.0
 11
373.544874
 21
-81.793700
 31
0.0
  0
LINE
  5
122
100
AcDbEntity
  8
Calque_1
 62
7
100
AcDbLine
 10
493.544832
 20
-66.793701
 30
0.0
 11
483.544852
 21
-66.793701
 31
0.0
  0
LINE
  5
123
100
AcDbEntity
  8
Calque_1
 62
7
100
AcDbLine
 10
543.544845
 20
-66.793701
 30
0.0
 11
543.544845
 21
-81.793700
 31
0.0
  0
LINE
  5
124
100
AcDbEntity
  8
Calque_1
 62
7
100
AcDbLine
 10
463.544835
 20
-81.793700
 30
0.0
 11
463.544835
 21
-86.793690
 31
0.0
  0
LINE
  5
125
100
AcDbEntity
  8
Calque_1
 62
7
100
AcDbLine
 10
508.544830
 20
-81.793700
 30
0.0
 11
508.544830
 21
-86.793690
 31
0.0
  0
LINE
  5
126
100
AcDbEntity
  8
Calque_1
 62
7
100
AcDbLine
 10
463.544835
 20
13.206308
 30
0.0
 11
453.544855
 21
13.206308
 31
0.0
  0
LINE
  5
127
100
AcDbEntity
  8
Calque_1
 62
7
100
AcDbLine
 10
463.544835
 20
-86.793690
 30
0.0
 11
453.544855
 21
-86.793690
 31
0.0
  0
LINE
  5
128
100
AcDbEntity
  8
Calque_1
 62
7
100
AcDbLine
 10
543.544845
 20
8.206290
 30
0.0
 11
543.544845
 21
-6.793680
 31
0.0
  0
LINE
  5
129
100
AcDbEntity
  8
Calque_1
 62
7
100
AcDbLine
 10
373.544874
 20
-6.793680
 30
0.0
 11
368.544884
 21
-6.793680
 31
0.0
  0
LINE
  5
12a
100
AcDbEntity
  8
Calque_1
 62
7
100
AcDbLine
 10
433.544839
 20
-66.793701
 30
0.0
 11
423.544831
 21
-66.793701
 31
0.0
  0
LINE
  5
12b
100
AcDbEntity
  8
Calque_1
 62
7
100
AcDbLine
 10
453.544855
 20
13.206308
 30
0.0
 11
453.544855
 21
8.206290
 31
0.0
  0
LINE
  5
12c
100
AcDbEntity
  8
Calque_1
 62
7
100
AcDbLine
 10
463.544835
 20
8.206290
 30
0.0
 11
508.544830
 21
8.206290
 31
0.0
  0
LINE
  5
12d
100
AcDbEntity
  8
Calque_1
 62
7
100
AcDbLine
 10
493.544832
 20
-6.793680
 30
0.0
 11
493.544832
 21
-16.793688
 31
0.0
  0
LINE
  5
12e
100
AcDbEntity
  8
Calque_1
 62
7
100
AcDbLine
 10
453.544855
 20
-81.793700
 30
0.0
 11
408.544861
 21
-81.793700
 31
0.0
  0
LINE
  5
12f
100
AcDbEntity
  8
Calque_1
 62
7
100
AcDbLine
 10
508.544830
 20
-86.793690
 30
0.0
 11
518.544838
 21
-86.793690
 31
0.0
  0
LINE
  5
130
100
AcDbEntity
  8
Calque_1
 62
7
100
AcDbLine
 10
423.544831
 20
-6.793680
 30
0.0
 11
433.544839
 21
-6.793680
 31
0.0
  0
LINE
  5
131
100
AcDbEntity
  8
Calque_1
 62
7
100
AcDbLine
 10
493.544832
 20
-16.793688
 30
0.0
 11
483.544852
 21
-16.793688
 31
0.0
  0
LINE
  5
132
100
AcDbEntity
  8
Calque_1
 62
7
100
AcDbLine
 10
508.544830
 20
8.206290
 30
0.0
 11
508.544830
 21
13.206308
 31
0.0
  0
LINE
  5
133
100
AcDbEntity
  8
Calque_1
 62
7
100
AcDbLine
 10
483.544852
 20
-56.793693
 30
0.0
 11
493.544832
 21
-56.793693
 31
0.0
  0
LINE
  5
134
100
AcDbEntity
  8
Calque_1
 62
7
100
AcDbLine
 10
463.544835
 20
8.206290
 30
0.0
 11
463.544835
 21
13.206308
 31
0.0
  0
LINE
  5
135
100
AcDbEntity
  8
Calque_1
 62
7
100
AcDbLine
 10
408.544861
 20
-86.793690
 30
0.0
 11
398.544881
 21
-86.793690
 31
0.0
  0
LINE
  5
136
100
AcDbEntity
  8
Calque_1
 62
7
100
AcDbLine
 10
433.544839
 20
-56.793693
 30
0.0
 11
433.544839
 21
-66.793701
 31
0.0
  0
LINE
  5
137
100
AcDbEntity
  8
Calque_1
 62
7
100
AcDbLine
 10
543.544845
 20
-81.793700
 30
0.0
 11
518.544838
 21
-81.793700
 31
0.0
  0
LINE
  5
138
100
AcDbEntity
  8
Calque_1
 62
7
100
AcDbLine
 10
398.544881
 20
13.206308
 30
0.0
 11
398.544881
 21
8.206290
 31
0.0
  0
LINE
  5
139
100
AcDbEntity
  8
Calque_1
 62
7
100
AcDbLine
 10
368.544884
 20
-16.793688
 30
0.0
 11
373.544874
 21
-16.793688
 31
0.0
  0
LINE
  5
13a
100
AcDbEntity
  8
Calque_1
 62
7
100
AcDbLine
 10
408.544861
 20
8.206290
 30
0.0
 11
453.544855
 21
8.206290
 31
0.0
  0
LINE
  5
13b
100
AcDbEntity
  8
Calque_1
 62
7
100
AcDbLine
 10
518.544838
 20
-86.793690
 30
0.0
 11
518.544838
 21
-81.793700
 31
0.0
  0
LINE
  5
13c
100
AcDbEntity
  8
Calque_1
 62
7
100
AcDbLine
 10
705.339035
 20
-134.796839
 30
0.0
 11
705.339035
 21
-129.796821
 31
0.0
  0
LINE
  5
13d
100
AcDbEntity
  8
Calque_1
 62
7
100
AcDbLine
 10
600.339019
 20
-138.796831
 30
0.0
 11
711.678762
 21
-138.796831
 31
0.0
  0
LINE
  5
13e
100
AcDbEntity
  8
Calque_1
 62
7
100
AcDbLine
 10
595.339029
 20
-129.796821
 30
0.0
 11
605.339037
 21
-129.796821
 31
0.0
  0
LINE
  5
13f
100
AcDbEntity
  8
Calque_1
 62
7
100
AcDbLine
 10
630.339015
 20
-77.296827
 30
0.0
 11
630.339015
 21
-84.296813
 31
0.0
  0
LINE
  5
140
100
AcDbEntity
  8
Calque_1
 62
7
100
AcDbLine
 10
690.339036
 20
-96.796830
 30
0.0
 11
690.339036
 21
-109.796833
 31
0.0
  0
LINE
  5
141
100
AcDbEntity
  8
Calque_1
 62
7
100
AcDbLine
 10
565.339032
 20
-110.296818
 30
0.0
 11
570.339022
 21
-110.296818
 31
0.0
  0
LINE
  5
142
100
AcDbEntity
  8
Calque_1
 62
7
100
AcDbLine
 10
620.339035
 20
-109.796833
 30
0.0
 11
620.339035
 21
-96.796830
 31
0.0
  0
LINE
  5
143
100
AcDbEntity
  8
Calque_1
 62
7
100
AcDbLine
 10
591.678776
 20
-143.796821
 30
0.0
 11
565.339032
 21
-143.796821
 31
0.0
  0
LINE
  5
144
100
AcDbEntity
  8
Calque_1
 62
7
100
AcDbLine
 10
595.339029
 20
-134.796839
 30
0.0
 11
595.339029
 21
-129.796821
 31
0.0
  0
LINE
  5
145
100
AcDbEntity
  8
Calque_1
 62
7
100
AcDbLine
 10
630.339015
 20
-84.296813
 30
0.0
 11
620.339035
 21
-84.296813
 31
0.0
  0
LINE
  5
146
100
AcDbEntity
  8
Calque_1
 62
7
100
AcDbLine
 10
745.339011
 20
-93.546816
 30
0.0
 11
740.339021
 21
-93.546816
 31
0.0
  0
LINE
  5
147
100
AcDbEntity
  8
Calque_1
 62
7
100
AcDbLine
 10
660.339012
 20
-129.796821
 30
0.0
 11
660.339012
 21
-134.796839
 31
0.0
  0
LINE
  5
148
100
AcDbEntity
  8
Calque_1
 62
7
100
AcDbLine
 10
715.339015
 20
-129.796821
 30
0.0
 11
715.339015
 21
-134.796839
 31
0.0
  0
LINE
  5
149
100
AcDbEntity
  8
Calque_1
 62
7
100
AcDbLine
 10
570.339022
 20
-127.046819
 30
0.0
 11
565.339032
 21
-127.046819
 31
0.0
  0
LINE
  5
14a
100
AcDbEntity
  8
Calque_1
 62
7
100
AcDbLine
 10
680.339028
 20
-109.796833
 30
0.0
 11
680.339028
 21
-96.796830
 31
0.0
  0
LINE
  5
14b
100
AcDbEntity
  8
Calque_1
 62
7
100
AcDbLine
 10
680.339028
 20
-84.296813
 30
0.0
 11
680.339028
 21
-77.296827
 31
0.0
  0
LINE
  5
14c
100
AcDbEntity
  8
Calque_1
 62
7
100
AcDbLine
 10
650.339032
 20
-134.796839
 30
0.0
 11
650.339032
 21
-129.796821
 31
0.0
  0
LINE
  5
14d
100
AcDbEntity
  8
Calque_1
 62
7
100
AcDbLine
 10
620.339035
 20
-77.296827
 30
0.0
 11
570.339022
 21
-77.296827
 31
0.0
  0
LINE
  5
14e
100
AcDbEntity
  8
Calque_1
 62
7
100
AcDbLine
 10
570.339022
 20
-110.296818
 30
0.0
 11
570.339022
 21
-127.046819
 31
0.0
  0
LINE
  5
14f
100
AcDbEntity
  8
Calque_1
 62
7
100
AcDbLine
 10
570.339022
 20
-77.296827
 30
0.0
 11
570.339022
 21
-93.546816
 31
0.0
  0
LINE
  5
150
100
AcDbEntity
  8
Calque_1
 62
7
100
AcDbLine
 10
680.339028
 20
-96.796830
 30
0.0
 11
690.339036
 21
-96.796830
 31
0.0
  0
LINE
  5
151
100
AcDbEntity
  8
Calque_1
 62
7
100
AcDbLine
 10
605.339037
 20
-129.796821
 30
0.0
 11
605.339037
 21
-134.796839
 31
0.0
  0
LINE
  5
152
100
AcDbEntity
  8
Calque_1
 62
7
100
AcDbLine
 10
620.339035
 20
-84.296813
 30
0.0
 11
620.339035
 21
-77.296827
 31
0.0
  0
LINE
  5
153
100
AcDbEntity
  8
Calque_1
 62
7
100
AcDbLine
 10
740.339021
 20
-93.546816
 30
0.0
 11
740.339021
 21
-77.296827
 31
0.0
  0
LINE
  5
154
100
AcDbEntity
  8
Calque_1
 62
7
100
AcDbLine
 10
570.339022
 20
-93.546816
 30
0.0
 11
565.339032
 21
-93.546816
 31
0.0
  0
LINE
  5
155
100
AcDbEntity
  8
Calque_1
 62
7
100
AcDbLine
 10
680.339028
 20
-77.296827
 30
0.0
 11
630.339015
 21
-77.296827
 31
0.0
  0
SPLINE
  5
156
100
AcDbEntity
  8
Calque_1
 62
7
100
AcDbSpline
 70
8
 71
3
 72
8
 73
4
 74
0
 40
0
 40
0
 40
0
 40
0
 40
1
 40
1
 40
1
 40
1
 10
591.678776
 20
-143.796821
 30
0.0
 10
593.465102
 20
-143.796821
 30
0.0
 10
595.115735
 20
-142.843841
 30
0.0
 10
596.008883
 20
-141.296812
 30
0.0
  0
SPLINE
  5
157
100
AcDbEntity
  8
Calque_1
 62
7
100
AcDbSpline
 70
8
 71
3
 72
8
 73
4
 74
0
 40
0
 40
0
 40
0
 40
0
 40
1
 40
1
 40
1
 40
1
 10
716.008897
 20
-141.296812
 30
0.0
 10
716.902046
 20
-142.843841
 30
0.0
 10
718.552707
 20
-143.796821
 30
0.0
 10
720.339033
 20
-143.796821
 30
0.0
  0
LINE
  5
158
100
AcDbEntity
  8
Calque_1
 62
7
100
AcDbLine
 10
745.339011
 20
-127.046819
 30
0.0
 11
740.339021
 21
-127.046819
 31
0.0
  0
LINE
  5
159
100
AcDbEntity
  8
Calque_1
 62
7
100
AcDbLine
 10
565.339032
 20
-110.296818
 30
0.0
 11
565.339032
 21
-93.546816
 31
0.0
  0
SPLINE
  5
15a
100
AcDbEntity
  8
Calque_1
 62
7
100
AcDbSpline
 70
8
 71
3
 72
8
 73
4
 74
0
 40
0
 40
0
 40
0
 40
0
 40
1
 40
1
 40
1
 40
1
 10
716.008897
 20
-141.296812
 30
0.0
 10
715.115720
 20
-139.749811
 30
0.0
 10
713.465087
 20
-138.796831
 30
0.0
 10
711.678762
 20
-138.796831
 30
0.0
  0
LINE
  5
15b
100
AcDbEntity
  8
Calque_1
 62
7
100
AcDbLine
 10
740.339021
 20
-110.296818
 30
0.0
 11
745.339011
 21
-110.296818
 31
0.0
  0
LINE
  5
15c
100
AcDbEntity
  8
Calque_1
 62
7
100
AcDbLine
 10
690.339036
 20
-84.296813
 30
0.0
 11
680.339028
 21
-84.296813
 31
0.0
  0
SPLINE
  5
15d
100
AcDbEntity
  8
Calque_1
 62
7
100
AcDbSpline
 70
8
 71
3
 72
8
 73
4
 74
0
 40
0
 40
0
 40
0
 40
0
 40
1
 40
1
 40
1
 40
1
 10
600.339019
 20
-138.796831
 30
0.0
 10
598.552693
 20
-138.796831
 30
0.0
 10
596.902060
 20
-139.749811
 30
0.0
 10
596.008883
 20
-141.296812
 30
0.0
  0
LINE
  5
15e
100
AcDbEntity
  8
Calque_1
 62
7
100
AcDbLine
 10
630.339015
 20
-109.796833
 30
0.0
 11
620.339035
 21
-109.796833
 31
0.0
  0
LINE
  5
15f
100
AcDbEntity
  8
Calque_1
 62
7
100
AcDbLine
 10
740.339021
 20
-77.296827
 30
0.0
 11
690.339036
 21
-77.296827
 31
0.0
  0
LINE
  5
160
100
AcDbEntity
  8
Calque_1
 62
7
100
AcDbLine
 10
620.339035
 20
-96.796830
 30
0.0
 11
630.339015
 21
-96.796830
 31
0.0
  0
LINE
  5
161
100
AcDbEntity
  8
Calque_1
 62
7
100
AcDbLine
 10
745.339011
 20
-127.046819
 30
0.0
 11
745.339011
 21
-143.796821
 31
0.0
  0
LINE
  5
162
100
AcDbEntity
  8
Calque_1
 62
7
100
AcDbLine
 10
690.339036
 20
-77.296827
 30
0.0
 11
690.339036
 21
-84.296813
 31
0.0
  0
LINE
  5
163
100
AcDbEntity
  8
Calque_1
 62
7
100
AcDbLine
 10
630.339015
 20
-96.796830
 30
0.0
 11
630.339015
 21
-109.796833
 31
0.0
  0
LINE
  5
164
100
AcDbEntity
  8
Calque_1
 62
7
100
AcDbLine
 10
715.339015
 20
-134.796839
 30
0.0
 11
705.339035
 21
-134.796839
 31
0.0
  0
LINE
  5
165
100
AcDbEntity
  8
Calque_1
 62
7
100
AcDbLine
 10
705.339035
 20
-129.796821
 30
0.0
 11
715.339015
 21
-129.796821
 31
0.0
  0
LINE
  5
166
100
AcDbEntity
  8
Calque_1
 62
7
100
AcDbLine
 10
745.339011
 20
-93.546816
 30
0.0
 11
745.339011
 21
-110.296818
 31
0.0
  0
LINE
  5
167
100
AcDbEntity
  8
Calque_1
 62
7
100
AcDbLine
 10
650.339032
 20
-129.796821
 30
0.0
 11
660.339012
 21
-129.796821
 31
0.0
  0
LINE
  5
168
100
AcDbEntity
  8
Calque_1
 62
7
100
AcDbLine
 10
745.339011
 20
-143.796821
 30
0.0
 11
720.339033
 21
-143.796821
 31
0.0
  0
LINE
  5
169
100
AcDbEntity
  8
Calque_1
 62
7
100
AcDbLine
 10
740.339021
 20
-127.046819
 30
0.0
 11
740.339021
 21
-110.296818
 31
0.0
  0
LINE
  5
16a
100
AcDbEntity
  8
Calque_1
 62
7
100
AcDbLine
 10
690.339036
 20
-109.796833
 30
0.0
 11
680.339028
 21
-109.796833
 31
0.0
  0
LINE
  5
16b
100
AcDbEntity
  8
Calque_1
 62
7
100
AcDbLine
 10
660.339012
 20
-134.796839
 30
0.0
 11
650.339032
 21
-134.796839
 31
0.0
  0
LINE
  5
16c
100
AcDbEntity
  8
Calque_1
 62
7
100
AcDbLine
 10
565.339032
 20
-143.796821
 30
0.0
 11
565.339032
 21
-127.046819
 31
0.0
  0
LINE
  5
16d
100
AcDbEntity
  8
Calque_1
 62
7
100
AcDbLine
 10
605.339037
 20
-134.796839
 30
0.0
 11
595.339029
 21
-134.796839
 31
0.0
  0
LINE
  5
16e
100
AcDbEntity
  8
Calque_1
 62
7
100
AcDbLine
 10
556.092078
 20
-19.472203
 30
0.0
 11
556.092078
 21
-2.722230
 31
0.0
  0
LINE
  5
16f
100
AcDbEntity
  8
Calque_1
 62
7
100
AcDbLine
 10
586.092074
 20
-43.972225
 30
0.0
 11
586.092074
 21
-38.972206
 31
0.0
  0
LINE
  5
170
100
AcDbEntity
  8
Calque_1
 62
7
100
AcDbLine
 10
706.092088
 20
-38.972206
 30
0.0
 11
706.092088
 21
-43.972225
 31
0.0
  0
LINE
  5
171
100
AcDbEntity
  8
Calque_1
 62
7
100
AcDbLine
 10
596.092082
 20
-38.972206
 30
0.0
 11
596.092082
 21
-43.972225
 31
0.0
  0
LINE
  5
172
100
AcDbEntity
  8
Calque_1
 62
7
100
AcDbLine
 10
556.092078
 20
-52.972207
 30
0.0
 11
556.092078
 21
-36.222205
 31
0.0
  0
LINE
  5
173
100
AcDbEntity
  8
Calque_1
 62
7
100
AcDbLine
 10
736.092085
 20
-36.222205
 30
0.0
 11
731.092066
 21
-36.222205
 31
0.0
  0
LINE
  5
174
100
AcDbEntity
  8
Calque_1
 62
7
100
AcDbLine
 10
671.092074
 20
-5.972216
 30
0.0
 11
681.092082
 21
-5.972216
 31
0.0
  0
LINE
  5
175
100
AcDbEntity
  8
Calque_1
 62
7
100
AcDbLine
 10
736.092085
 20
-52.972207
 30
0.0
 11
709.752341
 21
-52.972207
 31
0.0
  0
LINE
  5
176
100
AcDbEntity
  8
Calque_1
 62
7
100
AcDbLine
 10
621.092089
 20
-5.972216
 30
0.0
 11
621.092089
 21
-18.972218
 31
0.0
  0
LINE
  5
177
100
AcDbEntity
  8
Calque_1
 62
7
100
AcDbLine
 10
651.092085
 20
-38.972206
 30
0.0
 11
651.092085
 21
-43.972225
 31
0.0
  0
LINE
  5
178
100
AcDbEntity
  8
Calque_1
 62
7
100
AcDbLine
 10
556.092078
 20
-19.472203
 30
0.0
 11
561.092068
 21
-19.472203
 31
0.0
  0
LINE
  5
179
100
AcDbEntity
  8
Calque_1
 62
7
100
AcDbLine
 10
561.092068
 20
-36.222205
 30
0.0
 11
556.092078
 21
-36.222205
 31
0.0
  0
LINE
  5
17a
100
AcDbEntity
  8
Calque_1
 62
7
100
AcDbLine
 10
582.431821
 20
-52.972207
 30
0.0
 11
556.092078
 21
-52.972207
 31
0.0
  0
LINE
  5
17b
100
AcDbEntity
  8
Calque_1
 62
7
100
AcDbLine
 10
681.092082
 20
-18.972218
 30
0.0
 11
671.092074
 21
-18.972218
 31
0.0
  0
LINE
  5
17c
100
AcDbEntity
  8
Calque_1
 62
7
100
AcDbLine
 10
696.092080
 20
-43.972225
 30
0.0
 11
696.092080
 21
-38.972206
 31
0.0
  0
LINE
  5
17d
100
AcDbEntity
  8
Calque_1
 62
7
100
AcDbLine
 10
736.092085
 20
-2.722230
 30
0.0
 11
736.092085
 21
-19.472203
 31
0.0
  0
LINE
  5
17e
100
AcDbEntity
  8
Calque_1
 62
7
100
AcDbLine
 10
611.092081
 20
-18.972218
 30
0.0
 11
611.092081
 21
-5.972216
 31
0.0
  0
SPLINE
  5
17f
100
AcDbEntity
  8
Calque_1
 62
7
100
AcDbSpline
 70
8
 71
3
 72
8
 73
4
 74
0
 40
0
 40
0
 40
0
 40
0
 40
1
 40
1
 40
1
 40
1
 10
705.422206
 20
-50.472226
 30
0.0
 10
704.529057
 20
-48.925225
 30
0.0
 10
702.878396
 20
-47.972217
 30
0.0
 10
701.092070
 20
-47.972217
 30
0.0
  0
LINE
  5
180
100
AcDbEntity
  8
Calque_1
 62
7
100
AcDbLine
 10
731.092066
 20
-2.722230
 30
0.0
 11
731.092066
 21
14.027772
 31
0.0
  0
LINE
  5
181
100
AcDbEntity
  8
Calque_1
 62
7
100
AcDbLine
 10
706.092088
 20
-43.972225
 30
0.0
 11
696.092080
 21
-43.972225
 31
0.0
  0
SPLINE
  5
182
100
AcDbEntity
  8
Calque_1
 62
7
100
AcDbSpline
 70
8
 71
3
 72
8
 73
4
 74
0
 40
0
 40
0
 40
0
 40
0
 40
1
 40
1
 40
1
 40
1
 10
582.431821
 20
-52.972207
 30
0.0
 10
584.218147
 20
-52.972207
 30
0.0
 10
585.868780
 20
-52.019227
 30
0.0
 10
586.761957
 20
-50.472226
 30
0.0
  0
LINE
  5
183
100
AcDbEntity
  8
Calque_1
 62
7
100
AcDbLine
 10
561.092068
 20
-19.472203
 30
0.0
 11
561.092068
 21
-36.222205
 31
0.0
  0
LINE
  5
184
100
AcDbEntity
  8
Calque_1
 62
7
100
AcDbLine
 10
696.092080
 20
-38.972206
 30
0.0
 11
706.092088
 21
-38.972206
 31
0.0
  0
LINE
  5
185
100
AcDbEntity
  8
Calque_1
 62
7
100
AcDbLine
 10
731.092066
 20
-19.472203
 30
0.0
 11
736.092085
 21
-19.472203
 31
0.0
  0
LINE
  5
186
100
AcDbEntity
  8
Calque_1
 62
7
100
AcDbLine
 10
561.092068
 20
-2.722230
 30
0.0
 11
556.092078
 21
-2.722230
 31
0.0
  0
LINE
  5
187
100
AcDbEntity
  8
Calque_1
 62
7
100
AcDbLine
 10
731.092066
 20
-36.222205
 30
0.0
 11
731.092066
 21
-19.472231
 31
0.0
  0
SPLINE
  5
188
100
AcDbEntity
  8
Calque_1
 62
7
100
AcDbSpline
 70
8
 71
3
 72
8
 73
4
 74
0
 40
0
 40
0
 40
0
 40
0
 40
1
 40
1
 40
1
 40
1
 10
591.092092
 20
-47.972217
 30
0.0
 10
589.305739
 20
-47.972217
 30
0.0
 10
587.655106
 20
-48.925225
 30
0.0
 10
586.761957
 20
-50.472226
 30
0.0
  0
LINE
  5
189
100
AcDbEntity
  8
Calque_1
 62
7
100
AcDbLine
 10
586.092074
 20
-38.972206
 30
0.0
 11
596.092082
 21
-38.972206
 31
0.0
  0
LINE
  5
18a
100
AcDbEntity
  8
Calque_1
 62
7
100
AcDbLine
 10
736.092085
 20
-36.222205
 30
0.0
 11
736.092085
 21
-52.972207
 31
0.0
  0
LINE
  5
18b
100
AcDbEntity
  8
Calque_1
 62
7
100
AcDbLine
 10
611.092081
 20
-5.972216
 30
0.0
 11
621.092089
 21
-5.972216
 31
0.0
  0
LINE
  5
18c
100
AcDbEntity
  8
Calque_1
 62
7
100
AcDbLine
 10
561.092068
 20
14.027772
 30
0.0
 11
561.092068
 21
-2.722230
 31
0.0
  0
LINE
  5
18d
100
AcDbEntity
  8
Calque_1
 62
7
100
AcDbLine
 10
671.092074
 20
-18.972218
 30
0.0
 11
671.092074
 21
-5.972216
 31
0.0
  0
LINE
  5
18e
100
AcDbEntity
  8
Calque_1
 62
7
100
AcDbLine
 10
651.092085
 20
-43.972225
 30
0.0
 11
641.092077
 21
-43.972225
 31
0.0
  0
LINE
  5
18f
100
AcDbEntity
  8
Calque_1
 62
7
100
AcDbLine
 10
561.092068
 20
14.027772
 30
0.0
 11
731.092066
 21
14.027772
 31
0.0
  0
SPLINE
  5
190
100
AcDbEntity
  8
Calque_1
 62
7
100
AcDbSpline
 70
8
 71
3
 72
8
 73
4
 74
0
 40
0
 40
0
 40
0
 40
0
 40
1
 40
1
 40
1
 40
1
 10
705.422206
 20
-50.472226
 30
0.0
 10
706.315382
 20
-52.019227
 30
0.0
 10
707.966016
 20
-52.972207
 30
0.0
 10
709.752341
 20
-52.972207
 30
0.0
  0
LINE
  5
191
100
AcDbEntity
  8
Calque_1
 62
7
100
AcDbLine
 10
681.092082
 20
-5.972216
 30
0.0
 11
681.092082
 21
-18.972218
 31
0.0
  0
LINE
  5
192
100
AcDbEntity
  8
Calque_1
 62
7
100
AcDbLine
 10
641.092077
 20
-43.972225
 30
0.0
 11
641.092077
 21
-38.972206
 31
0.0
  0
LINE
  5
193
100
AcDbEntity
  8
Calque_1
 62
7
100
AcDbLine
 10
591.092092
 20
-47.972217
 30
0.0
 11
701.092070
 21
-47.972217
 31
0.0
  0
LINE
  5
194
100
AcDbEntity
  8
Calque_1
 62
7
100
AcDbLine
 10
596.092082
 20
-43.972225
 30
0.0
 11
586.092074
 21
-43.972225
 31
0.0
  0
LINE
  5
195
100
AcDbEntity
  8
Calque_1
 62
7
100
AcDbLine
 10
621.092089
 20
-18.972218
 30
0.0
 11
611.092081
 21
-18.972218
 31
0.0
  0
LINE
  5
196
100
AcDbEntity
  8
Calque_1
 62
7
100
AcDbLine
 10
641.092077
 20
-38.972206
 30
0.0
 11
651.092085
 21
-38.972206
 31
0.0
  0
LINE
  5
197
100
AcDbEntity
  8
Calque_1
 62
7
100
AcDbLine
 10
736.092085
 20
-2.722230
 30
0.0
 11
731.092066
 21
-2.722230
 31
0.0
  0
LINE
  5
198
100
AcDbEntity
  8
Calque_1
 62
7
100
AcDbLine
 10
353.099426
 20
-89.780222
 30
0.0
 11
348.099408
 21
-89.780222
 31
0.0
  0
LINE
  5
199
100
AcDbEntity
  8
Calque_1
 62
7
100
AcDbLine
 10
348.099408
 20
-84.780232
 30
0.0
 11
353.099426
 21
-84.780232
 31
0.0
  0
LINE
  5
19a
100
AcDbEntity
  8
Calque_1
 62
7
100
AcDbLine
 10
353.099426
 20
-84.780232
 30
0.0
 11
353.099426
 21
-89.780222
 31
0.0
  0
LINE
  5
19b
100
AcDbEntity
  8
Calque_1
 62
7
100
AcDbLine
 10
348.099408
 20
-89.780222
 30
0.0
 11
348.099408
 21
-84.780232
 31
0.0
  0
SPLINE
  5
19c
100
AcDbEntity
  8
Calque_1
 62
7
100
AcDbSpline
 70
8
 71
3
 72
8
 73
4
 74
0
 40
0
 40
0
 40
0
 40
0
 40
1
 40
1
 40
1
 40
1
 10
341.137438
 20
-90.516201
 30
0.0
 10
342.521060
 20
-94.561828
 30
0.0
 10
346.323722
 20
-97.280221
 30
0.0
 10
350.599417
 20
-97.280221
 30
0.0
  0
SPLINE
  5
19d
100
AcDbEntity
  8
Calque_1
 62
7
100
AcDbSpline
 70
8
 71
3
 72
8
 73
4
 74
0
 40
0
 40
0
 40
0
 40
0
 40
1
 40
1
 40
1
 40
1
 10
344.475675
 20
-79.374519
 30
0.0
 10
341.095443
 20
-81.992836
 30
0.0
 10
339.753843
 20
-86.470545
 30
0.0
 10
341.137438
 20
-90.516201
 30
0.0
  0
SPLINE
  5
19e
100
AcDbEntity
  8
Calque_1
 62
7
100
AcDbSpline
 70
8
 71
3
 72
8
 73
4
 74
0
 40
0
 40
0
 40
0
 40
0
 40
1
 40
1
 40
1
 40
1
 10
356.098094
 20
-78.927705
 30
0.0
 10
352.526826
 20
-76.576624
 30
0.0
 10
347.855907
 20
-76.756202
 30
0.0
 10
344.475675
 20
-79.374519
 30
0.0
  0
SPLINE
  5
19f
100
AcDbEntity
  8
Calque_1
 62
7
100
AcDbSpline
 70
8
 71
3
 72
8
 73
4
 74
0
 40
0
 40
0
 40
0
 40
0
 40
1
 40
1
 40
1
 40
1
 10
360.281869
 20
-89.780222
 30
0.0
 10
361.350786
 20
-85.640304
 30
0.0
 10
359.669362
 20
-81.278785
 30
0.0
 10
356.098094
 20
-78.927705
 30
0.0
  0
LINE
  5
1a0
100
AcDbEntity
  8
Calque_1
 62
7
100
AcDbLine
 10
350.599417
 20
-97.280221
 30
0.0
 11
358.099416
 21
-97.280221
 31
0.0
  0
LINE
  5
1a1
100
AcDbEntity
  8
Calque_1
 62
7
100
AcDbLine
 10
353.099426
 20
-122.780212
 30
0.0
 11
353.099426
 21
-109.780210
 31
0.0
  0
LINE
  5
1a2
100
AcDbEntity
  8
Calque_1
 62
7
100
AcDbLine
 10
423.099428
 20
-147.780218
 30
0.0
 11
423.099428
 21
-142.780200
 31
0.0
  0
LINE
  5
1a3
100
AcDbEntity
  8
Calque_1
 62
7
100
AcDbLine
 10
423.099428
 20
-142.780200
 30
0.0
 11
383.099423
 21
-142.780200
 31
0.0
  0
LINE
  5
1a4
100
AcDbEntity
  8
Calque_1
 62
7
100
AcDbLine
 10
383.099423
 20
-147.780218
 30
0.0
 11
373.099415
 21
-147.780218
 31
0.0
  0
LINE
  5
1a5
100
AcDbEntity
  8
Calque_1
 62
7
100
AcDbLine
 10
373.099415
 20
-142.780200
 30
0.0
 11
358.099416
 21
-142.780200
 31
0.0
  0
LINE
  5
1a6
100
AcDbEntity
  8
Calque_1
 62
7
100
AcDbLine
 10
433.099408
 20
-142.780200
 30
0.0
 11
433.099408
 21
-147.780218
 31
0.0
  0
LINE
  5
1a7
100
AcDbEntity
  8
Calque_1
 62
7
100
AcDbLine
 10
358.099416
 20
-122.780212
 30
0.0
 11
358.099416
 21
-142.780200
 31
0.0
  0
LINE
  5
1a8
100
AcDbEntity
  8
Calque_1
 62
7
100
AcDbLine
 10
355.599436
 20
-87.280212
 30
0.0
 11
355.599436
 21
-87.280212
 31
0.0
  0
SPLINE
  5
1a9
100
AcDbEntity
  8
Calque_1
 62
7
100
AcDbSpline
 70
8
 71
3
 72
8
 73
4
 74
0
 40
0
 40
0
 40
0
 40
0
 40
1
 40
1
 40
1
 40
1
 10
350.599417
 20
-92.280231
 30
0.0
 10
353.360849
 20
-92.280231
 30
0.0
 10
355.599436
 20
-90.041644
 30
0.0
 10
355.599436
 20
-87.280212
 30
0.0
  0
SPLINE
  5
1aa
100
AcDbEntity
  8
Calque_1
 62
7
100
AcDbSpline
 70
8
 71
3
 72
8
 73
4
 74
0
 40
0
 40
0
 40
0
 40
0
 40
1
 40
1
 40
1
 40
1
 10
345.599427
 20
-87.280212
 30
0.0
 10
345.599427
 20
-90.041644
 30
0.0
 10
347.837986
 20
-92.280231
 30
0.0
 10
350.599417
 20
-92.280231
 30
0.0
  0
SPLINE
  5
1ab
100
AcDbEntity
  8
Calque_1
 62
7
100
AcDbSpline
 70
8
 71
3
 72
8
 73
4
 74
0
 40
0
 40
0
 40
0
 40
0
 40
1
 40
1
 40
1
 40
1
 10
348.099408
 20
-82.950105
 30
0.0
 10
346.552407
 20
-83.843254
 30
0.0
 10
345.599427
 20
-85.493887
 30
0.0
 10
345.599427
 20
-87.280212
 30
0.0
  0
SPLINE
  5
1ac
100
AcDbEntity
  8
Calque_1
 62
7
100
AcDbSpline
 70
8
 71
3
 72
8
 73
4
 74
0
 40
0
 40
0
 40
0
 40
0
 40
1
 40
1
 40
1
 40
1
 10
353.099426
 20
-82.950105
 30
0.0
 10
351.552425
 20
-82.056928
 30
0.0
 10
349.646409
 20
-82.056928
 30
0.0
 10
348.099408
 20
-82.950105
 30
0.0
  0
SPLINE
  5
1ad
100
AcDbEntity
  8
Calque_1
 62
7
100
AcDbSpline
 70
8
 71
3
 72
8
 73
4
 74
0
 40
0
 40
0
 40
0
 40
0
 40
1
 40
1
 40
1
 40
1
 10
355.599436
 20
-87.280212
 30
0.0
 10
355.599436
 20
-85.493887
 30
0.0
 10
354.646428
 20
-83.843254
 30
0.0
 10
353.099426
 20
-82.950105
 30
0.0
  0
LINE
  5
1ae
100
AcDbEntity
  8
Calque_1
 62
7
100
AcDbLine
 10
433.099408
 20
-147.780218
 30
0.0
 11
423.099428
 21
-147.780218
 31
0.0
  0
LINE
  5
1af
100
AcDbEntity
  8
Calque_1
 62
7
100
AcDbLine
 10
448.099462
 20
-142.780200
 30
0.0
 11
448.099462
 21
-122.780212
 31
0.0
  0
LINE
  5
1b0
100
AcDbEntity
  8
Calque_1
 62
7
100
AcDbLine
 10
373.099415
 20
-147.780218
 30
0.0
 11
373.099415
 21
-142.780200
 31
0.0
  0
LINE
  5
1b1
100
AcDbEntity
  8
Calque_1
 62
7
100
AcDbLine
 10
448.099462
 20
-109.780210
 30
0.0
 11
448.099462
 21
-89.780222
 31
0.0
  0
LINE
  5
1b2
100
AcDbEntity
  8
Calque_1
 62
7
100
AcDbLine
 10
358.099416
 20
-109.780210
 30
0.0
 11
353.099426
 21
-109.780210
 31
0.0
  0
LINE
  5
1b3
100
AcDbEntity
  8
Calque_1
 62
7
100
AcDbLine
 10
353.099426
 20
-122.780212
 30
0.0
 11
358.099416
 21
-122.780212
 31
0.0
  0
LINE
  5
1b4
100
AcDbEntity
  8
Calque_1
 62
7
100
AcDbLine
 10
358.099416
 20
-97.280221
 30
0.0
 11
358.099416
 21
-109.780210
 31
0.0
  0
LINE
  5
1b5
100
AcDbEntity
  8
Calque_1
 62
7
100
AcDbLine
 10
448.099462
 20
-142.780200
 30
0.0
 11
433.099408
 21
-142.780200
 31
0.0
  0
LINE
  5
1b6
100
AcDbEntity
  8
Calque_1
 62
7
100
AcDbLine
 10
383.099423
 20
-142.780200
 30
0.0
 11
383.099423
 21
-147.780218
 31
0.0
  0
LINE
  5
1b7
100
AcDbEntity
  8
Calque_1
 62
7
100
AcDbLine
 10
360.281869
 20
-89.780222
 30
0.0
 11
448.099462
 21
-89.780222
 31
0.0
  0
LINE
  5
1b8
100
AcDbEntity
  8
Calque_1
 62
7
100
AcDbLine
 10
448.099462
 20
-122.780212
 30
0.0
 11
453.099452
 21
-122.780212
 31
0.0
  0
LINE
  5
1b9
100
AcDbEntity
  8
Calque_1
 62
7
100
AcDbLine
 10
453.099452
 20
-109.780210
 30
0.0
 11
453.099452
 21
-122.780212
 31
0.0
  0
LINE
  5
1ba
100
AcDbEntity
  8
Calque_1
 62
7
100
AcDbLine
 10
453.099452
 20
-109.780210
 30
0.0
 11
448.099462
 21
-109.780210
 31
0.0
  0
LINE
  5
1bb
100
AcDbEntity
  8
Calque_1
 62
7
100
AcDbLine
 10
1162.670663
 20
-76.987540
 30
0.0
 11
1157.670645
 21
-76.987540
 31
0.0
  0
LINE
  5
1bc
100
AcDbEntity
  8
Calque_1
 62
7
100
AcDbLine
 10
1157.670645
 20
-71.987550
 30
0.0
 11
1162.670663
 21
-71.987550
 31
0.0
  0
LINE
  5
1bd
100
AcDbEntity
  8
Calque_1
 62
7
100
AcDbLine
 10
1162.670663
 20
-71.987550
 30
0.0
 11
1162.670663
 21
-76.987540
 31
0.0
  0
LINE
  5
1be
100
AcDbEntity
  8
Calque_1
 62
7
100
AcDbLine
 10
1157.670645
 20
-76.987540
 30
0.0
 11
1157.670645
 21
-71.987550
 31
0.0
  0
SPLINE
  5
1bf
100
AcDbEntity
  8
Calque_1
 62
7
100
AcDbSpline
 70
8
 71
3
 72
8
 73
4
 74
0
 40
0
 40
0
 40
0
 40
0
 40
1
 40
1
 40
1
 40
1
 10
1169.632606
 20
-77.723519
 30
0.0
 10
1168.248983
 20
-81.769146
 30
0.0
 10
1164.446349
 20
-84.487539
 30
0.0
 10
1160.170654
 20
-84.487539
 30
0.0
  0
SPLINE
  5
1c0
100
AcDbEntity
  8
Calque_1
 62
7
100
AcDbSpline
 70
8
 71
3
 72
8
 73
4
 74
0
 40
0
 40
0
 40
0
 40
0
 40
1
 40
1
 40
1
 40
1
 10
1166.294368
 20
-66.581837
 30
0.0
 10
1169.674600
 20
-69.200154
 30
0.0
 10
1171.016200
 20
-73.677892
 30
0.0
 10
1169.632606
 20
-77.723519
 30
0.0
  0
SPLINE
  5
1c1
100
AcDbEntity
  8
Calque_1
 62
7
100
AcDbSpline
 70
8
 71
3
 72
8
 73
4
 74
0
 40
0
 40
0
 40
0
 40
0
 40
1
 40
1
 40
1
 40
1
 10
1154.671949
 20
-66.135023
 30
0.0
 10
1158.243217
 20
-63.783971
 30
0.0
 10
1162.914164
 20
-63.963520
 30
0.0
 10
1166.294368
 20
-66.581837
 30
0.0
  0
SPLINE
  5
1c2
100
AcDbEntity
  8
Calque_1
 62
7
100
AcDbSpline
 70
8
 71
3
 72
8
 73
4
 74
0
 40
0
 40
0
 40
0
 40
0
 40
1
 40
1
 40
1
 40
1
 10
1150.488202
 20
-76.987540
 30
0.0
 10
1149.419257
 20
-72.847622
 30
0.0
 10
1151.100681
 20
-68.486103
 30
0.0
 10
1154.671949
 20
-66.135023
 30
0.0
  0
LINE
  5
1c3
100
AcDbEntity
  8
Calque_1
 62
7
100
AcDbLine
 10
1062.670609
 20
-109.987530
 30
0.0
 11
1057.670619
 21
-109.987530
 31
0.0
  0
LINE
  5
1c4
100
AcDbEntity
  8
Calque_1
 62
7
100
AcDbLine
 10
1160.170654
 20
-84.487539
 30
0.0
 11
1152.670655
 21
-84.487539
 31
0.0
  0
LINE
  5
1c5
100
AcDbEntity
  8
Calque_1
 62
7
100
AcDbLine
 10
1157.670645
 20
-109.987530
 30
0.0
 11
1157.670645
 21
-96.987528
 31
0.0
  0
LINE
  5
1c6
100
AcDbEntity
  8
Calque_1
 62
7
100
AcDbLine
 10
1087.670616
 20
-134.987537
 30
0.0
 11
1087.670616
 21
-129.987547
 31
0.0
  0
LINE
  5
1c7
100
AcDbEntity
  8
Calque_1
 62
7
100
AcDbLine
 10
1087.670616
 20
-129.987547
 30
0.0
 11
1127.670648
 21
-129.987547
 31
0.0
  0
LINE
  5
1c8
100
AcDbEntity
  8
Calque_1
 62
7
100
AcDbLine
 10
1127.670648
 20
-134.987537
 30
0.0
 11
1137.670657
 21
-134.987537
 31
0.0
  0
LINE
  5
1c9
100
AcDbEntity
  8
Calque_1
 62
7
100
AcDbLine
 10
1137.670657
 20
-129.987547
 30
0.0
 11
1152.670655
 21
-129.987547
 31
0.0
  0
LINE
  5
1ca
100
AcDbEntity
  8
Calque_1
 62
7
100
AcDbLine
 10
1077.670636
 20
-129.987547
 30
0.0
 11
1077.670636
 21
-134.987537
 31
0.0
  0
LINE
  5
1cb
100
AcDbEntity
  8
Calque_1
 62
7
100
AcDbLine
 10
1152.670655
 20
-109.987530
 30
0.0
 11
1152.670655
 21
-129.987547
 31
0.0
  0
LINE
  5
1cc
100
AcDbEntity
  8
Calque_1
 62
7
100
AcDbLine
 10
1155.170636
 20
-74.487559
 30
0.0
 11
1155.170636
 21
-74.487559
 31
0.0
  0
SPLINE
  5
1cd
100
AcDbEntity
  8
Calque_1
 62
7
100
AcDbSpline
 70
8
 71
3
 72
8
 73
4
 74
0
 40
0
 40
0
 40
0
 40
0
 40
1
 40
1
 40
1
 40
1
 10
1157.670617
 20
-78.817666
 30
0.0
 10
1156.123616
 20
-77.924518
 30
0.0
 10
1155.170636
 20
-76.273884
 30
0.0
 10
1155.170636
 20
-74.487559
 30
0.0
  0
SPLINE
  5
1ce
100
AcDbEntity
  8
Calque_1
 62
7
100
AcDbSpline
 70
8
 71
3
 72
8
 73
4
 74
0
 40
0
 40
0
 40
0
 40
0
 40
1
 40
1
 40
1
 40
1
 10
1162.670635
 20
-78.817666
 30
0.0
 10
1161.123634
 20
-79.710843
 30
0.0
 10
1159.217646
 20
-79.710843
 30
0.0
 10
1157.670617
 20
-78.817666
 30
0.0
  0
SPLINE
  5
1cf
100
AcDbEntity
  8
Calque_1
 62
7
100
AcDbSpline
 70
8
 71
3
 72
8
 73
4
 74
0
 40
0
 40
0
 40
0
 40
0
 40
1
 40
1
 40
1
 40
1
 10
1165.170644
 20
-74.487559
 30
0.0
 10
1165.170644
 20
-76.273884
 30
0.0
 10
1164.217636
 20
-77.924518
 30
0.0
 10
1162.670635
 20
-78.817666
 30
0.0
  0
SPLINE
  5
1d0
100
AcDbEntity
  8
Calque_1
 62
7
100
AcDbSpline
 70
8
 71
3
 72
8
 73
4
 74
0
 40
0
 40
0
 40
0
 40
0
 40
1
 40
1
 40
1
 40
1
 10
1162.670635
 20
-70.157423
 30
0.0
 10
1164.217636
 20
-71.050572
 30
0.0
 10
1165.170644
 20
-72.701233
 30
0.0
 10
1165.170644
 20
-74.487559
 30
0.0
  0
SPLINE
  5
1d1
100
AcDbEntity
  8
Calque_1
 62
7
100
AcDbSpline
 70
8
 71
3
 72
8
 73
4
 74
0
 40
0
 40
0
 40
0
 40
0
 40
1
 40
1
 40
1
 40
1
 10
1157.670617
 20
-70.157423
 30
0.0
 10
1159.217646
 20
-69.264246
 30
0.0
 10
1161.123634
 20
-69.264246
 30
0.0
 10
1162.670635
 20
-70.157423
 30
0.0
  0
SPLINE
  5
1d2
100
AcDbEntity
  8
Calque_1
 62
7
100
AcDbSpline
 70
8
 71
3
 72
8
 73
4
 74
0
 40
0
 40
0
 40
0
 40
0
 40
1
 40
1
 40
1
 40
1
 10
1155.170636
 20
-74.487559
 30
0.0
 10
1155.170636
 20
-72.701233
 30
0.0
 10
1156.123616
 20
-71.050572
 30
0.0
 10
1157.670617
 20
-70.157423
 30
0.0
  0
LINE
  5
1d3
100
AcDbEntity
  8
Calque_1
 62
7
100
AcDbLine
 10
1077.670636
 20
-134.987537
 30
0.0
 11
1087.670616
 21
-134.987537
 31
0.0
  0
LINE
  5
1d4
100
AcDbEntity
  8
Calque_1
 62
7
100
AcDbLine
 10
1062.670609
 20
-129.987547
 30
0.0
 11
1062.670609
 21
-109.987530
 31
0.0
  0
LINE
  5
1d5
100
AcDbEntity
  8
Calque_1
 62
7
100
AcDbLine
 10
1137.670657
 20
-134.987537
 30
0.0
 11
1137.670657
 21
-129.987547
 31
0.0
  0
LINE
  5
1d6
100
AcDbEntity
  8
Calque_1
 62
7
100
AcDbLine
 10
1057.670619
 20
-96.987528
 30
0.0
 11
1057.670619
 21
-109.987530
 31
0.0
  0
LINE
  5
1d7
100
AcDbEntity
  8
Calque_1
 62
7
100
AcDbLine
 10
1062.670609
 20
-96.987528
 30
0.0
 11
1062.670609
 21
-76.987540
 31
0.0
  0
LINE
  5
1d8
100
AcDbEntity
  8
Calque_1
 62
7
100
AcDbLine
 10
1152.670655
 20
-96.987528
 30
0.0
 11
1157.670645
 21
-96.987528
 31
0.0
  0
LINE
  5
1d9
100
AcDbEntity
  8
Calque_1
 62
7
100
AcDbLine
 10
1157.670645
 20
-109.987530
 30
0.0
 11
1152.670655
 21
-109.987530
 31
0.0
  0
LINE
  5
1da
100
AcDbEntity
  8
Calque_1
 62
7
100
AcDbLine
 10
1152.670655
 20
-84.487539
 30
0.0
 11
1152.670655
 21
-96.987528
 31
0.0
  0
LINE
  5
1db
100
AcDbEntity
  8
Calque_1
 62
7
100
AcDbLine
 10
1062.670609
 20
-129.987547
 30
0.0
 11
1077.670636
 21
-129.987547
 31
0.0
  0
LINE
  5
1dc
100
AcDbEntity
  8
Calque_1
 62
7
100
AcDbLine
 10
1127.670648
 20
-129.987547
 30
0.0
 11
1127.670648
 21
-134.987537
 31
0.0
  0
LINE
  5
1dd
100
AcDbEntity
  8
Calque_1
 62
7
100
AcDbLine
 10
1150.488202
 20
-76.987540
 30
0.0
 11
1062.670609
 21
-76.987540
 31
0.0
  0
LINE
  5
1de
100
AcDbEntity
  8
Calque_1
 62
7
100
AcDbLine
 10
1057.670619
 20
-96.987528
 30
0.0
 11
1062.670609
 21
-96.987528
 31
0.0
  0
LINE
  5
1df
100
AcDbEntity
  8
Calque_1
 62
7
100
AcDbLine
 10
1183.748091
 20
-25.752127
 30
0.0
 11
1178.748101
 21
-25.752127
 31
0.0
  0
LINE
  5
1e0
100
AcDbEntity
  8
Calque_1
 62
7
100
AcDbLine
 10
1090.930508
 20
-5.752111
 30
0.0
 11
1178.748101
 21
-5.752111
 31
0.0
  0
LINE
  5
1e1
100
AcDbEntity
  8
Calque_1
 62
7
100
AcDbLine
 10
1113.748062
 20
-58.752118
 30
0.0
 11
1113.748062
 21
-63.752108
 31
0.0
  0
LINE
  5
1e2
100
AcDbEntity
  8
Calque_1
 62
7
100
AcDbLine
 10
1178.748101
 20
-58.752118
 30
0.0
 11
1163.748075
 21
-58.752118
 31
0.0
  0
LINE
  5
1e3
100
AcDbEntity
  8
Calque_1
 62
7
100
AcDbLine
 10
1088.748055
 20
-13.252110
 30
0.0
 11
1088.748055
 21
-25.752127
 31
0.0
  0
LINE
  5
1e4
100
AcDbEntity
  8
Calque_1
 62
7
100
AcDbLine
 10
1083.748065
 20
-38.752130
 30
0.0
 11
1088.748055
 21
-38.752130
 31
0.0
  0
LINE
  5
1e5
100
AcDbEntity
  8
Calque_1
 62
7
100
AcDbLine
 10
1088.748055
 20
-25.752127
 30
0.0
 11
1083.748065
 21
-25.752127
 31
0.0
  0
LINE
  5
1e6
100
AcDbEntity
  8
Calque_1
 62
7
100
AcDbLine
 10
1178.748101
 20
-25.752127
 30
0.0
 11
1178.748101
 21
-5.752111
 31
0.0
  0
LINE
  5
1e7
100
AcDbEntity
  8
Calque_1
 62
7
100
AcDbLine
 10
1183.748091
 20
-25.752127
 30
0.0
 11
1183.748091
 21
-38.752130
 31
0.0
  0
LINE
  5
1e8
100
AcDbEntity
  8
Calque_1
 62
7
100
AcDbLine
 10
1103.748054
 20
-63.752108
 30
0.0
 11
1103.748054
 21
-58.752118
 31
0.0
  0
LINE
  5
1e9
100
AcDbEntity
  8
Calque_1
 62
7
100
AcDbLine
 10
1178.748101
 20
-58.752118
 30
0.0
 11
1178.748101
 21
-38.752130
 31
0.0
  0
LINE
  5
1ea
100
AcDbEntity
  8
Calque_1
 62
7
100
AcDbLine
 10
1163.748075
 20
-63.752108
 30
0.0
 11
1153.748095
 21
-63.752108
 31
0.0
  0
SPLINE
  5
1eb
100
AcDbEntity
  8
Calque_1
 62
7
100
AcDbSpline
 70
8
 71
3
 72
8
 73
4
 74
0
 40
0
 40
0
 40
0
 40
0
 40
1
 40
1
 40
1
 40
1
 10
1086.248074
 20
-3.252130
 30
0.0
 10
1086.248074
 20
-1.465804
 30
0.0
 10
1085.295066
 20
0.184829
 30
0.0
 10
1083.748065
 20
1.078006
 30
0.0
  0
SPLINE
  5
1ec
100
AcDbEntity
  8
Calque_1
 62
7
100
AcDbSpline
 70
8
 71
3
 72
8
 73
4
 74
0
 40
0
 40
0
 40
0
 40
0
 40
1
 40
1
 40
1
 40
1
 10
1083.748065
 20
1.078006
 30
0.0
 10
1082.201064
 20
1.971154
 30
0.0
 10
1080.295076
 20
1.971154
 30
0.0
 10
1078.748047
 20
1.078006
 30
0.0
  0
SPLINE
  5
1ed
100
AcDbEntity
  8
Calque_1
 62
7
100
AcDbSpline
 70
8
 71
3
 72
8
 73
4
 74
0
 40
0
 40
0
 40
0
 40
0
 40
1
 40
1
 40
1
 40
1
 10
1078.748047
 20
1.078006
 30
0.0
 10
1077.201046
 20
0.184829
 30
0.0
 10
1076.248066
 20
-1.465804
 30
0.0
 10
1076.248066
 20
-3.252130
 30
0.0
  0
SPLINE
  5
1ee
100
AcDbEntity
  8
Calque_1
 62
7
100
AcDbSpline
 70
8
 71
3
 72
8
 73
4
 74
0
 40
0
 40
0
 40
0
 40
0
 40
1
 40
1
 40
1
 40
1
 10
1076.248066
 20
-3.252130
 30
0.0
 10
1076.248066
 20
-5.038456
 30
0.0
 10
1077.201046
 20
-6.689089
 30
0.0
 10
1078.748047
 20
-7.582266
 30
0.0
  0
SPLINE
  5
1ef
100
AcDbEntity
  8
Calque_1
 62
7
100
AcDbSpline
 70
8
 71
3
 72
8
 73
4
 74
0
 40
0
 40
0
 40
0
 40
0
 40
1
 40
1
 40
1
 40
1
 10
1078.748047
 20
-7.582266
 30
0.0
 10
1080.295076
 20
-8.475442
 30
0.0
 10
1082.201064
 20
-8.475442
 30
0.0
 10
1083.748065
 20
-7.582266
 30
0.0
  0
SPLINE
  5
1f0
100
AcDbEntity
  8
Calque_1
 62
7
100
AcDbSpline
 70
8
 71
3
 72
8
 73
4
 74
0
 40
0
 40
0
 40
0
 40
0
 40
1
 40
1
 40
1
 40
1
 10
1083.748065
 20
-7.582266
 30
0.0
 10
1085.295066
 20
-6.689089
 30
0.0
 10
1086.248074
 20
-5.038456
 30
0.0
 10
1086.248074
 20
-3.252130
 30
0.0
  0
LINE
  5
1f1
100
AcDbEntity
  8
Calque_1
 62
7
100
AcDbLine
 10
1086.248074
 20
-3.252130
 30
0.0
 11
1086.248074
 21
-3.252130
 31
0.0
  0
LINE
  5
1f2
100
AcDbEntity
  8
Calque_1
 62
7
100
AcDbLine
 10
1088.748055
 20
-38.752130
 30
0.0
 11
1088.748055
 21
-58.752118
 31
0.0
  0
LINE
  5
1f3
100
AcDbEntity
  8
Calque_1
 62
7
100
AcDbLine
 10
1163.748075
 20
-58.752118
 30
0.0
 11
1163.748075
 21
-63.752108
 31
0.0
  0
LINE
  5
1f4
100
AcDbEntity
  8
Calque_1
 62
7
100
AcDbLine
 10
1103.748054
 20
-58.752118
 30
0.0
 11
1088.748055
 21
-58.752118
 31
0.0
  0
LINE
  5
1f5
100
AcDbEntity
  8
Calque_1
 62
7
100
AcDbLine
 10
1113.748062
 20
-63.752108
 30
0.0
 11
1103.748054
 21
-63.752108
 31
0.0
  0
LINE
  5
1f6
100
AcDbEntity
  8
Calque_1
 62
7
100
AcDbLine
 10
1153.748095
 20
-58.752118
 30
0.0
 11
1113.748062
 21
-58.752118
 31
0.0
  0
LINE
  5
1f7
100
AcDbEntity
  8
Calque_1
 62
7
100
AcDbLine
 10
1153.748095
 20
-63.752108
 30
0.0
 11
1153.748095
 21
-58.752118
 31
0.0
  0
LINE
  5
1f8
100
AcDbEntity
  8
Calque_1
 62
7
100
AcDbLine
 10
1083.748065
 20
-38.752130
 30
0.0
 11
1083.748065
 21
-25.752127
 31
0.0
  0
LINE
  5
1f9
100
AcDbEntity
  8
Calque_1
 62
7
100
AcDbLine
 10
1081.248056
 20
-13.252110
 30
0.0
 11
1088.748055
 21
-13.252110
 31
0.0
  0
LINE
  5
1fa
100
AcDbEntity
  8
Calque_1
 62
7
100
AcDbLine
 10
1178.748101
 20
-38.752130
 30
0.0
 11
1183.748091
 21
-38.752130
 31
0.0
  0
SPLINE
  5
1fb
100
AcDbEntity
  8
Calque_1
 62
7
100
AcDbSpline
 70
8
 71
3
 72
8
 73
4
 74
0
 40
0
 40
0
 40
0
 40
0
 40
1
 40
1
 40
1
 40
1
 10
1090.930508
 20
-5.752111
 30
0.0
 10
1091.999425
 20
-1.612193
 30
0.0
 10
1090.318029
 20
2.749297
 30
0.0
 10
1086.746733
 20
5.100378
 30
0.0
  0
SPLINE
  5
1fc
100
AcDbEntity
  8
Calque_1
 62
7
100
AcDbSpline
 70
8
 71
3
 72
8
 73
4
 74
0
 40
0
 40
0
 40
0
 40
0
 40
1
 40
1
 40
1
 40
1
 10
1086.746733
 20
5.100378
 30
0.0
 10
1083.175465
 20
7.451458
 30
0.0
 10
1078.504546
 20
7.271880
 30
0.0
 10
1075.124314
 20
4.653564
 30
0.0
  0
SPLINE
  5
1fd
100
AcDbEntity
  8
Calque_1
 62
7
100
AcDbSpline
 70
8
 71
3
 72
8
 73
4
 74
0
 40
0
 40
0
 40
0
 40
0
 40
1
 40
1
 40
1
 40
1
 10
1075.124314
 20
4.653564
 30
0.0
 10
1071.744082
 20
2.035247
 30
0.0
 10
1070.402482
 20
-2.442463
 30
0.0
 10
1071.786105
 20
-6.488090
 30
0.0
  0
SPLINE
  5
1fe
100
AcDbEntity
  8
Calque_1
 62
7
100
AcDbSpline
 70
8
 71
3
 72
8
 73
4
 74
0
 40
0
 40
0
 40
0
 40
0
 40
1
 40
1
 40
1
 40
1
 10
1071.786105
 20
-6.488090
 30
0.0
 10
1073.169699
 20
-10.533746
 30
0.0
 10
1076.972361
 20
-13.252138
 30
0.0
 10
1081.248056
 20
-13.252110
 30
0.0
  0
LINE
  5
1ff
100
AcDbEntity
  8
Calque_1
 62
7
100
AcDbLine
 10
1078.748075
 20
-5.752139
 30
0.0
 11
1078.748075
 21
-0.752149
 31
0.0
  0
LINE
  5
200
100
AcDbEntity
  8
Calque_1
 62
7
100
AcDbLine
 10
1083.748094
 20
-0.752149
 30
0.0
 11
1083.748094
 21
-5.752139
 31
0.0
  0
LINE
  5
201
100
AcDbEntity
  8
Calque_1
 62
7
100
AcDbLine
 10
1078.748075
 20
-0.752149
 30
0.0
 11
1083.748094
 21
-0.752149
 31
0.0
  0
LINE
  5
202
100
AcDbEntity
  8
Calque_1
 62
7
100
AcDbLine
 10
1083.748094
 20
-5.752139
 30
0.0
 11
1078.748075
 21
-5.752139
 31
0.0
  0
LINE
  5
203
100
AcDbEntity
  8
Calque_1
 62
7
100
AcDbLine
 10
936.456626
 20
-69.708210
 30
0.0
 11
936.456626
 21
-69.708210
 31
0.0
  0
LINE
  5
204
100
AcDbEntity
  8
Calque_1
 62
7
100
AcDbLine
 10
946.440826
 20
-83.525106
 30
0.0
 11
941.440808
 21
-83.525106
 31
0.0
  0
LINE
  5
205
100
AcDbEntity
  8
Calque_1
 62
7
100
AcDbLine
 10
941.440808
 20
-78.525116
 30
0.0
 11
946.440826
 21
-78.525116
 31
0.0
  0
LINE
  5
206
100
AcDbEntity
  8
Calque_1
 62
7
100
AcDbLine
 10
946.440826
 20
-78.525116
 30
0.0
 11
946.440826
 21
-83.525106
 31
0.0
  0
LINE
  5
207
100
AcDbEntity
  8
Calque_1
 62
7
100
AcDbLine
 10
941.440808
 20
-83.525106
 30
0.0
 11
941.440808
 21
-78.525116
 31
0.0
  0
LINE
  5
208
100
AcDbEntity
  8
Calque_1
 62
7
100
AcDbLine
 10
1046.440824
 20
-133.775111
 30
0.0
 11
1046.440824
 21
-117.025109
 31
0.0
  0
LINE
  5
209
100
AcDbEntity
  8
Calque_1
 62
7
100
AcDbLine
 10
946.440826
 20
-90.707576
 30
0.0
 11
946.440826
 21
-100.275107
 31
0.0
  0
LINE
  5
20a
100
AcDbEntity
  8
Calque_1
 62
7
100
AcDbLine
 10
1016.440827
 20
-136.525112
 30
0.0
 11
1016.440827
 21
-141.525102
 31
0.0
  0
LINE
  5
20b
100
AcDbEntity
  8
Calque_1
 62
7
100
AcDbLine
 10
951.440816
 20
-117.025109
 30
0.0
 11
951.440816
 21
-100.275107
 31
0.0
  0
SPLINE
  5
20c
100
AcDbEntity
  8
Calque_1
 62
7
100
AcDbSpline
 70
8
 71
3
 72
8
 73
4
 74
0
 40
0
 40
0
 40
0
 40
0
 40
1
 40
1
 40
1
 40
1
 10
1024.774144
 20
-145.525123
 30
0.0
 10
1026.560469
 20
-145.525123
 30
0.0
 10
1028.211102
 20
-146.478102
 30
0.0
 10
1029.104279
 20
-148.025104
 30
0.0
  0
LINE
  5
20d
100
AcDbEntity
  8
Calque_1
 62
7
100
AcDbLine
 10
1046.440824
 20
-100.275107
 30
0.0
 11
1041.440805
 21
-100.275107
 31
0.0
  0
LINE
  5
20e
100
AcDbEntity
  8
Calque_1
 62
7
100
AcDbLine
 10
951.440816
 20
-150.525113
 30
0.0
 11
959.447235
 21
-150.525113
 31
0.0
  0
LINE
  5
20f
100
AcDbEntity
  8
Calque_1
 62
7
100
AcDbLine
 10
946.440826
 20
-117.025109
 30
0.0
 11
946.440826
 21
-133.775111
 31
0.0
  0
SPLINE
  5
210
100
AcDbEntity
  8
Calque_1
 62
7
100
AcDbSpline
 70
8
 71
3
 72
8
 73
4
 74
0
 40
0
 40
0
 40
0
 40
0
 40
1
 40
1
 40
1
 40
1
 10
948.901268
 20
-72.342163
 30
0.0
 10
952.816508
 20
-74.578887
 30
0.0
 10
954.750549
 20
-79.159184
 30
0.0
 10
953.623269
 20
-83.525106
 30
0.0
  0
SPLINE
  5
211
100
AcDbEntity
  8
Calque_1
 62
7
100
AcDbSpline
 70
8
 71
3
 72
8
 73
4
 74
0
 40
0
 40
0
 40
0
 40
0
 40
1
 40
1
 40
1
 40
1
 10
936.869739
 20
-73.954047
 30
0.0
 10
940.058145
 20
-70.765613
 30
0.0
 10
944.985999
 20
-70.105411
 30
0.0
 10
948.901268
 20
-72.342163
 30
0.0
  0
SPLINE
  5
212
100
AcDbEntity
  8
Calque_1
 62
7
100
AcDbSpline
 70
8
 71
3
 72
8
 73
4
 74
0
 40
0
 40
0
 40
0
 40
0
 40
1
 40
1
 40
1
 40
1
 10
935.257855
 20
-85.985575
 30
0.0
 10
933.021103
 20
-82.070335
 30
0.0
 10
933.681305
 20
-77.142481
 30
0.0
 10
936.869739
 20
-73.954047
 30
0.0
  0
SPLINE
  5
213
100
AcDbEntity
  8
Calque_1
 62
7
100
AcDbSpline
 70
8
 71
3
 72
8
 73
4
 74
0
 40
0
 40
0
 40
0
 40
0
 40
1
 40
1
 40
1
 40
1
 10
946.440826
 20
-90.707576
 30
0.0
 10
942.074876
 20
-91.834857
 30
0.0
 10
937.494579
 20
-89.900844
 30
0.0
 10
935.257855
 20
-85.985575
 30
0.0
  0
LINE
  5
214
100
AcDbEntity
  8
Calque_1
 62
7
100
AcDbLine
 10
1026.440807
 20
-136.525112
 30
0.0
 11
1016.440827
 21
-136.525112
 31
0.0
  0
LINE
  5
215
100
AcDbEntity
  8
Calque_1
 62
7
100
AcDbLine
 10
1046.440824
 20
-83.525106
 30
0.0
 11
953.623269
 21
-83.525106
 31
0.0
  0
SPLINE
  5
216
100
AcDbEntity
  8
Calque_1
 62
7
100
AcDbSpline
 70
8
 71
3
 72
8
 73
4
 74
0
 40
0
 40
0
 40
0
 40
0
 40
1
 40
1
 40
1
 40
1
 10
941.437929
 20
-85.363529
 30
0.0
 10
939.889489
 20
-84.468151
 30
0.0
 10
938.937271
 20
-82.813793
 30
0.0
 10
938.940827
 20
-81.025125
 30
0.0
  0
SPLINE
  5
217
100
AcDbEntity
  8
Calque_1
 62
7
100
AcDbSpline
 70
8
 71
3
 72
8
 73
4
 74
0
 40
0
 40
0
 40
0
 40
0
 40
1
 40
1
 40
1
 40
1
 10
946.443676
 20
-85.363529
 30
0.0
 10
944.895208
 20
-86.258879
 30
0.0
 10
942.986398
 20
-86.258879
 30
0.0
 10
941.437929
 20
-85.363529
 30
0.0
  0
SPLINE
  5
218
100
AcDbEntity
  8
Calque_1
 62
7
100
AcDbSpline
 70
8
 71
3
 72
8
 73
4
 74
0
 40
0
 40
0
 40
0
 40
0
 40
1
 40
1
 40
1
 40
1
 10
948.940807
 20
-81.025125
 30
0.0
 10
948.944476
 20
-82.813793
 30
0.0
 10
947.992145
 20
-84.468151
 30
0.0
 10
946.443676
 20
-85.363529
 30
0.0
  0
SPLINE
  5
219
100
AcDbEntity
  8
Calque_1
 62
7
100
AcDbSpline
 70
8
 71
3
 72
8
 73
4
 74
0
 40
0
 40
0
 40
0
 40
0
 40
1
 40
1
 40
1
 40
1
 10
946.443676
 20
-76.686692
 30
0.0
 10
947.992145
 20
-77.582070
 30
0.0
 10
948.944363
 20
-79.236428
 30
0.0
 10
948.940807
 20
-81.025125
 30
0.0
  0
SPLINE
  5
21a
100
AcDbEntity
  8
Calque_1
 62
7
100
AcDbSpline
 70
8
 71
3
 72
8
 73
4
 74
0
 40
0
 40
0
 40
0
 40
0
 40
1
 40
1
 40
1
 40
1
 10
941.437929
 20
-76.686692
 30
0.0
 10
942.986398
 20
-75.791342
 30
0.0
 10
944.895208
 20
-75.791342
 30
0.0
 10
946.443676
 20
-76.686692
 30
0.0
  0
SPLINE
  5
21b
100
AcDbEntity
  8
Calque_1
 62
7
100
AcDbSpline
 70
8
 71
3
 72
8
 73
4
 74
0
 40
0
 40
0
 40
0
 40
0
 40
1
 40
1
 40
1
 40
1
 10
938.940827
 20
-81.025125
 30
0.0
 10
938.937158
 20
-79.236428
 30
0.0
 10
939.889489
 20
-77.582070
 30
0.0
 10
941.437929
 20
-76.686692
 30
0.0
  0
LINE
  5
21c
100
AcDbEntity
  8
Calque_1
 62
7
100
AcDbLine
 10
946.440826
 20
-117.025109
 30
0.0
 11
951.440816
 21
-117.025109
 31
0.0
  0
LINE
  5
21d
100
AcDbEntity
  8
Calque_1
 62
7
100
AcDbLine
 10
951.440816
 20
-100.275107
 30
0.0
 11
946.440826
 21
-100.275107
 31
0.0
  0
LINE
  5
21e
100
AcDbEntity
  8
Calque_1
 62
7
100
AcDbLine
 10
976.440822
 20
-141.525102
 30
0.0
 11
976.440822
 21
-136.525112
 31
0.0
  0
LINE
  5
21f
100
AcDbEntity
  8
Calque_1
 62
7
100
AcDbLine
 10
1033.434415
 20
-150.525113
 30
0.0
 11
1041.440805
 21
-150.525113
 31
0.0
  0
LINE
  5
220
100
AcDbEntity
  8
Calque_1
 62
7
100
AcDbLine
 10
966.440814
 20
-141.525102
 30
0.0
 11
976.440822
 21
-141.525102
 31
0.0
  0
LINE
  5
221
100
AcDbEntity
  8
Calque_1
 62
7
100
AcDbLine
 10
951.440816
 20
-150.525113
 30
0.0
 11
951.440816
 21
-133.775111
 31
0.0
  0
LINE
  5
222
100
AcDbEntity
  8
Calque_1
 62
7
100
AcDbLine
 10
1026.440807
 20
-141.525102
 30
0.0
 11
1026.440807
 21
-136.525112
 31
0.0
  0
LINE
  5
223
100
AcDbEntity
  8
Calque_1
 62
7
100
AcDbLine
 10
1041.440805
 20
-100.275107
 30
0.0
 11
1041.440805
 21
-117.025109
 31
0.0
  0
LINE
  5
224
100
AcDbEntity
  8
Calque_1
 62
7
100
AcDbLine
 10
951.440816
 20
-133.775111
 30
0.0
 11
946.440826
 21
-133.775111
 31
0.0
  0
LINE
  5
225
100
AcDbEntity
  8
Calque_1
 62
7
100
AcDbLine
 10
966.440814
 20
-136.525112
 30
0.0
 11
966.440814
 21
-141.525102
 31
0.0
  0
SPLINE
  5
226
100
AcDbEntity
  8
Calque_1
 62
7
100
AcDbSpline
 70
8
 71
3
 72
8
 73
4
 74
0
 40
0
 40
0
 40
0
 40
0
 40
1
 40
1
 40
1
 40
1
 10
963.777342
 20
-148.025104
 30
0.0
 10
964.670491
 20
-146.478102
 30
0.0
 10
966.321152
 20
-145.525123
 30
0.0
 10
968.107478
 20
-145.525123
 30
0.0
  0
LINE
  5
227
100
AcDbEntity
  8
Calque_1
 62
7
100
AcDbLine
 10
1041.440805
 20
-133.775111
 30
0.0
 11
1041.440805
 21
-150.525113
 31
0.0
  0
SPLINE
  5
228
100
AcDbEntity
  8
Calque_1
 62
7
100
AcDbSpline
 70
8
 71
3
 72
8
 73
4
 74
0
 40
0
 40
0
 40
0
 40
0
 40
1
 40
1
 40
1
 40
1
 10
1033.434415
 20
-150.525113
 30
0.0
 10
1031.648061
 20
-150.525113
 30
0.0
 10
1029.997428
 20
-149.572105
 30
0.0
 10
1029.104279
 20
-148.025104
 30
0.0
  0
SPLINE
  5
229
100
AcDbEntity
  8
Calque_1
 62
7
100
AcDbSpline
 70
8
 71
3
 72
8
 73
4
 74
0
 40
0
 40
0
 40
0
 40
0
 40
1
 40
1
 40
1
 40
1
 10
963.777342
 20
-148.025104
 30
0.0
 10
962.884165
 20
-149.572105
 30
0.0
 10
961.233560
 20
-150.525113
 30
0.0
 10
959.447235
 20
-150.525113
 30
0.0
  0
LINE
  5
22a
100
AcDbEntity
  8
Calque_1
 62
7
100
AcDbLine
 10
1024.774144
 20
-145.525123
 30
0.0
 11
968.107478
 21
-145.525123
 31
0.0
  0
LINE
  5
22b
100
AcDbEntity
  8
Calque_1
 62
7
100
AcDbLine
 10
1046.440824
 20
-133.775111
 30
0.0
 11
1041.440805
 21
-133.775111
 31
0.0
  0
LINE
  5
22c
100
AcDbEntity
  8
Calque_1
 62
7
100
AcDbLine
 10
1041.440805
 20
-117.025109
 30
0.0
 11
1046.440824
 21
-117.025109
 31
0.0
  0
LINE
  5
22d
100
AcDbEntity
  8
Calque_1
 62
7
100
AcDbLine
 10
1016.440827
 20
-141.525102
 30
0.0
 11
1026.440807
 21
-141.525102
 31
0.0
  0
LINE
  5
22e
100
AcDbEntity
  8
Calque_1
 62
7
100
AcDbLine
 10
976.440822
 20
-136.525112
 30
0.0
 11
966.440814
 21
-136.525112
 31
0.0
  0
LINE
  5
22f
100
AcDbEntity
  8
Calque_1
 62
7
100
AcDbLine
 10
1046.440824
 20
-100.275107
 30
0.0
 11
1046.440824
 21
-83.525106
 31
0.0
  0
LINE
  5
230
100
AcDbEntity
  8
Calque_1
 62
7
100
AcDbLine
 10
831.456610
 20
-84.834644
 30
0.0
 11
929.809474
 21
-84.834644
 31
0.0
  0
LINE
  5
231
100
AcDbEntity
  8
Calque_1
 62
7
100
AcDbLine
 10
823.956611
 20
-89.834634
 30
0.0
 11
831.456610
 21
-89.834634
 31
0.0
  0
LINE
  5
232
100
AcDbEntity
  8
Calque_1
 62
7
100
AcDbLine
 10
823.956611
 20
-139.834647
 30
0.0
 11
823.956611
 21
-144.834637
 31
0.0
  0
LINE
  5
233
100
AcDbEntity
  8
Calque_1
 62
7
100
AcDbLine
 10
823.956611
 20
-84.834644
 30
0.0
 11
818.956621
 21
-84.834644
 31
0.0
  0
SPLINE
  5
234
100
AcDbEntity
  8
Calque_1
 62
7
100
AcDbSpline
 70
8
 71
3
 72
8
 73
4
 74
0
 40
0
 40
0
 40
0
 40
0
 40
1
 40
1
 40
1
 40
1
 10
929.809474
 20
-84.834644
 30
0.0
 10
929.427712
 20
-91.556754
 30
0.0
 10
929.326874
 20
-98.145316
 30
0.0
 10
929.387806
 20
-104.099951
 30
0.0
  0
SPLINE
  5
235
100
AcDbEntity
  8
Calque_1
 62
7
100
AcDbSpline
 70
8
 71
3
 72
8
 73
4
 74
0
 40
0
 40
0
 40
0
 40
0
 40
1
 40
1
 40
1
 40
1
 10
929.387806
 20
-104.099951
 30
0.0
 10
929.548475
 20
-119.800199
 30
0.0
 10
930.833885
 20
-131.093350
 30
0.0
 10
931.155251
 20
-137.795817
 30
0.0
  0
SPLINE
  5
236
100
AcDbEntity
  8
Calque_1
 62
7
100
AcDbSpline
 70
8
 71
3
 72
8
 73
4
 74
0
 40
0
 40
0
 40
0
 40
0
 40
1
 40
1
 40
1
 40
1
 10
931.155251
 20
-137.795817
 30
0.0
 10
931.476589
 20
-144.498256
 30
0.0
 10
930.833885
 20
-146.609984
 30
0.0
 10
925.111462
 20
-148.528446
 30
0.0
  0
SPLINE
  5
237
100
AcDbEntity
  8
Calque_1
 62
7
100
AcDbSpline
 70
8
 71
3
 72
8
 73
4
 74
0
 40
0
 40
0
 40
0
 40
0
 40
1
 40
1
 40
1
 40
1
 10
925.111462
 20
-148.528446
 30
0.0
 10
919.389068
 20
-150.446936
 30
0.0
 10
908.586928
 20
-152.172132
 30
0.0
 10
893.468227
 20
-152.699662
 30
0.0
  0
SPLINE
  5
238
100
AcDbEntity
  8
Calque_1
 62
7
100
AcDbSpline
 70
8
 71
3
 72
8
 73
4
 74
0
 40
0
 40
0
 40
0
 40
0
 40
1
 40
1
 40
1
 40
1
 10
893.468227
 20
-152.699662
 30
0.0
 10
878.349498
 20
-153.227164
 30
0.0
 10
858.914236
 20
-152.556999
 30
0.0
 10
831.456610
 20
-144.834637
 30
0.0
  0
LINE
  5
239
100
AcDbEntity
  8
Calque_1
 62
7
100
AcDbLine
 10
831.456610
 20
-139.834647
 30
0.0
 11
823.956611
 21
-139.834647
 31
0.0
  0
LINE
  5
23a
100
AcDbEntity
  8
Calque_1
 62
7
100
AcDbLine
 10
831.456610
 20
-89.834634
 30
0.0
 11
831.456610
 21
-84.834644
 31
0.0
  0
LINE
  5
23b
100
AcDbEntity
  8
Calque_1
 62
7
100
AcDbLine
 10
818.956621
 20
-144.834637
 30
0.0
 11
823.956611
 21
-144.834637
 31
0.0
  0
LINE
  5
23c
100
AcDbEntity
  8
Calque_1
 62
7
100
AcDbLine
 10
831.456610
 20
-144.834637
 30
0.0
 11
831.456610
 21
-139.834647
 31
0.0
  0
LINE
  5
23d
100
AcDbEntity
  8
Calque_1
 62
7
100
AcDbLine
 10
823.956611
 20
-84.834644
 30
0.0
 11
823.956611
 21
-89.834634
 31
0.0
  0
LINE
  5
23e
100
AcDbEntity
  8
Calque_1
 62
7
100
AcDbLine
 10
818.956621
 20
-84.834644
 30
0.0
 11
818.956621
 21
-144.834637
 31
0.0
  0
LINE
  5
23f
100
AcDbEntity
  8
Calque_1
 62
7
100
AcDbLine
 10
554.052288
 20
-89.780222
 30
0.0
 11
559.052307
 21
-89.780222
 31
0.0
  0
LINE
  5
240
100
AcDbEntity
  8
Calque_1
 62
7
100
AcDbLine
 10
559.052307
 20
-84.780232
 30
0.0
 11
554.052288
 21
-84.780232
 31
0.0
  0
LINE
  5
241
100
AcDbEntity
  8
Calque_1
 62
7
100
AcDbLine
 10
554.052288
 20
-84.780232
 30
0.0
 11
554.052288
 21
-89.780222
 31
0.0
  0
LINE
  5
242
100
AcDbEntity
  8
Calque_1
 62
7
100
AcDbLine
 10
559.052307
 20
-89.780222
 30
0.0
 11
559.052307
 21
-84.780232
 31
0.0
  0
SPLINE
  5
243
100
AcDbEntity
  8
Calque_1
 62
7
100
AcDbSpline
 70
8
 71
3
 72
8
 73
4
 74
0
 40
0
 40
0
 40
0
 40
0
 40
1
 40
1
 40
1
 40
1
 10
566.014277
 20
-90.516201
 30
0.0
 10
564.630655
 20
-94.561828
 30
0.0
 10
560.827992
 20
-97.280221
 30
0.0
 10
556.552298
 20
-97.280221
 30
0.0
  0
SPLINE
  5
244
100
AcDbEntity
  8
Calque_1
 62
7
100
AcDbSpline
 70
8
 71
3
 72
8
 73
4
 74
0
 40
0
 40
0
 40
0
 40
0
 40
1
 40
1
 40
1
 40
1
 10
562.676040
 20
-79.374519
 30
0.0
 10
566.056272
 20
-81.992836
 30
0.0
 10
567.397872
 20
-86.470545
 30
0.0
 10
566.014277
 20
-90.516201
 30
0.0
  0
SPLINE
  5
245
100
AcDbEntity
  8
Calque_1
 62
7
100
AcDbSpline
 70
8
 71
3
 72
8
 73
4
 74
0
 40
0
 40
0
 40
0
 40
0
 40
1
 40
1
 40
1
 40
1
 10
551.053621
 20
-78.927705
 30
0.0
 10
554.624889
 20
-76.576624
 30
0.0
 10
559.295808
 20
-76.756202
 30
0.0
 10
562.676040
 20
-79.374519
 30
0.0
  0
SPLINE
  5
246
100
AcDbEntity
  8
Calque_1
 62
7
100
AcDbSpline
 70
8
 71
3
 72
8
 73
4
 74
0
 40
0
 40
0
 40
0
 40
0
 40
1
 40
1
 40
1
 40
1
 10
546.869846
 20
-89.780222
 30
0.0
 10
545.800929
 20
-85.640304
 30
0.0
 10
547.482353
 20
-81.278785
 30
0.0
 10
551.053621
 20
-78.927705
 30
0.0
  0
LINE
  5
247
100
AcDbEntity
  8
Calque_1
 62
7
100
AcDbLine
 10
556.552298
 20
-97.280221
 30
0.0
 11
549.052298
 21
-97.280221
 31
0.0
  0
LINE
  5
248
100
AcDbEntity
  8
Calque_1
 62
7
100
AcDbLine
 10
554.052288
 20
-122.780212
 30
0.0
 11
554.052288
 21
-109.780210
 31
0.0
  0
LINE
  5
249
100
AcDbEntity
  8
Calque_1
 62
7
100
AcDbLine
 10
484.052287
 20
-147.780218
 30
0.0
 11
484.052287
 21
-142.780200
 31
0.0
  0
LINE
  5
24a
100
AcDbEntity
  8
Calque_1
 62
7
100
AcDbLine
 10
484.052287
 20
-142.780200
 30
0.0
 11
524.052292
 21
-142.780200
 31
0.0
  0
LINE
  5
24b
100
AcDbEntity
  8
Calque_1
 62
7
100
AcDbLine
 10
524.052292
 20
-147.780218
 30
0.0
 11
534.052300
 21
-147.780218
 31
0.0
  0
LINE
  5
24c
100
AcDbEntity
  8
Calque_1
 62
7
100
AcDbLine
 10
534.052300
 20
-142.780200
 30
0.0
 11
549.052298
 21
-142.780200
 31
0.0
  0
LINE
  5
24d
100
AcDbEntity
  8
Calque_1
 62
7
100
AcDbLine
 10
474.052307
 20
-142.780200
 30
0.0
 11
474.052307
 21
-147.780218
 31
0.0
  0
LINE
  5
24e
100
AcDbEntity
  8
Calque_1
 62
7
100
AcDbLine
 10
549.052298
 20
-122.780212
 30
0.0
 11
549.052298
 21
-142.780200
 31
0.0
  0
LINE
  5
24f
100
AcDbEntity
  8
Calque_1
 62
7
100
AcDbLine
 10
551.552279
 20
-87.280212
 30
0.0
 11
551.552279
 21
-87.280212
 31
0.0
  0
SPLINE
  5
250
100
AcDbEntity
  8
Calque_1
 62
7
100
AcDbSpline
 70
8
 71
3
 72
8
 73
4
 74
0
 40
0
 40
0
 40
0
 40
0
 40
1
 40
1
 40
1
 40
1
 10
556.552298
 20
-92.280231
 30
0.0
 10
553.790866
 20
-92.280231
 30
0.0
 10
551.552279
 20
-90.041644
 30
0.0
 10
551.552279
 20
-87.280212
 30
0.0
  0
SPLINE
  5
251
100
AcDbEntity
  8
Calque_1
 62
7
100
AcDbSpline
 70
8
 71
3
 72
8
 73
4
 74
0
 40
0
 40
0
 40
0
 40
0
 40
1
 40
1
 40
1
 40
1
 10
561.552288
 20
-87.280212
 30
0.0
 10
561.552288
 20
-90.041644
 30
0.0
 10
559.313729
 20
-92.280231
 30
0.0
 10
556.552298
 20
-92.280231
 30
0.0
  0
SPLINE
  5
252
100
AcDbEntity
  8
Calque_1
 62
7
100
AcDbSpline
 70
8
 71
3
 72
8
 73
4
 74
0
 40
0
 40
0
 40
0
 40
0
 40
1
 40
1
 40
1
 40
1
 10
559.052307
 20
-82.950105
 30
0.0
 10
560.599308
 20
-83.843254
 30
0.0
 10
561.552288
 20
-85.493887
 30
0.0
 10
561.552288
 20
-87.280212
 30
0.0
  0
SPLINE
  5
253
100
AcDbEntity
  8
Calque_1
 62
7
100
AcDbSpline
 70
8
 71
3
 72
8
 73
4
 74
0
 40
0
 40
0
 40
0
 40
0
 40
1
 40
1
 40
1
 40
1
 10
554.052288
 20
-82.950105
 30
0.0
 10
555.599290
 20
-82.056928
 30
0.0
 10
557.505306
 20
-82.056928
 30
0.0
 10
559.052307
 20
-82.950105
 30
0.0
  0
SPLINE
  5
254
100
AcDbEntity
  8
Calque_1
 62
7
100
AcDbSpline
 70
8
 71
3
 72
8
 73
4
 74
0
 40
0
 40
0
 40
0
 40
0
 40
1
 40
1
 40
1
 40
1
 10
551.552279
 20
-87.280212
 30
0.0
 10
551.552279
 20
-85.493887
 30
0.0
 10
552.505287
 20
-83.843254
 30
0.0
 10
554.052288
 20
-82.950105
 30
0.0
  0
LINE
  5
255
100
AcDbEntity
  8
Calque_1
 62
7
100
AcDbLine
 10
474.052307
 20
-147.780218
 30
0.0
 11
484.052287
 21
-147.780218
 31
0.0
  0
LINE
  5
256
100
AcDbEntity
  8
Calque_1
 62
7
100
AcDbLine
 10
459.052253
 20
-142.780200
 30
0.0
 11
459.052253
 21
-122.780212
 31
0.0
  0
LINE
  5
257
100
AcDbEntity
  8
Calque_1
 62
7
100
AcDbLine
 10
534.052300
 20
-147.780218
 30
0.0
 11
534.052300
 21
-142.780200
 31
0.0
  0
LINE
  5
258
100
AcDbEntity
  8
Calque_1
 62
7
100
AcDbLine
 10
459.052253
 20
-109.780210
 30
0.0
 11
459.052253
 21
-89.780222
 31
0.0
  0
LINE
  5
259
100
AcDbEntity
  8
Calque_1
 62
7
100
AcDbLine
 10
549.052298
 20
-109.780210
 30
0.0
 11
554.052288
 21
-109.780210
 31
0.0
  0
LINE
  5
25a
100
AcDbEntity
  8
Calque_1
 62
7
100
AcDbLine
 10
554.052288
 20
-122.780212
 30
0.0
 11
549.052298
 21
-122.780212
 31
0.0
  0
LINE
  5
25b
100
AcDbEntity
  8
Calque_1
 62
7
100
AcDbLine
 10
549.052298
 20
-97.280221
 30
0.0
 11
549.052298
 21
-109.780210
 31
0.0
  0
LINE
  5
25c
100
AcDbEntity
  8
Calque_1
 62
7
100
AcDbLine
 10
459.052253
 20
-142.780200
 30
0.0
 11
474.052307
 21
-142.780200
 31
0.0
  0
LINE
  5
25d
100
AcDbEntity
  8
Calque_1
 62
7
100
AcDbLine
 10
524.052292
 20
-142.780200
 30
0.0
 11
524.052292
 21
-147.780218
 31
0.0
  0
LINE
  5
25e
100
AcDbEntity
  8
Calque_1
 62
7
100
AcDbLine
 10
546.869846
 20
-89.780222
 30
0.0
 11
459.052253
 21
-89.780222
 31
0.0
  0
LINE
  5
25f
100
AcDbEntity
  8
Calque_1
 62
7
100
AcDbLine
 10
459.052253
 20
-122.780212
 30
0.0
 11
454.052263
 21
-122.780212
 31
0.0
  0
LINE
  5
260
100
AcDbEntity
  8
Calque_1
 62
7
100
AcDbLine
 10
454.052263
 20
-109.780210
 30
0.0
 11
454.052263
 21
-122.780212
 31
0.0
  0
LINE
  5
261
100
AcDbEntity
  8
Calque_1
 62
7
100
AcDbLine
 10
454.052263
 20
-109.780210
 30
0.0
 11
459.052253
 21
-109.780210
 31
0.0
  0
LINE
  5
262
100
AcDbEntity
  8
Calque_1
 62
7
100
AcDbLine
 10
831.456610
 20
-68.170184
 30
0.0
 11
929.809474
 21
-68.170184
 31
0.0
  0
LINE
  5
263
100
AcDbEntity
  8
Calque_1
 62
7
100
AcDbLine
 10
823.956611
 20
-63.170194
 30
0.0
 11
831.456610
 21
-63.170194
 31
0.0
  0
LINE
  5
264
100
AcDbEntity
  8
Calque_1
 62
7
100
AcDbLine
 10
823.956611
 20
-13.170181
 30
0.0
 11
823.956611
 21
-8.170191
 31
0.0
  0
LINE
  5
265
100
AcDbEntity
  8
Calque_1
 62
7
100
AcDbLine
 10
823.956611
 20
-68.170184
 30
0.0
 11
818.956621
 21
-68.170184
 31
0.0
  0
SPLINE
  5
266
100
AcDbEntity
  8
Calque_1
 62
7
100
AcDbSpline
 70
8
 71
3
 72
8
 73
4
 74
0
 40
0
 40
0
 40
0
 40
0
 40
1
 40
1
 40
1
 40
1
 10
929.809474
 20
-68.170184
 30
0.0
 10
929.427712
 20
-61.448074
 30
0.0
 10
929.326874
 20
-54.859511
 30
0.0
 10
929.387806
 20
-48.904876
 30
0.0
  0
SPLINE
  5
267
100
AcDbEntity
  8
Calque_1
 62
7
100
AcDbSpline
 70
8
 71
3
 72
8
 73
4
 74
0
 40
0
 40
0
 40
0
 40
0
 40
1
 40
1
 40
1
 40
1
 10
929.387806
 20
-48.904876
 30
0.0
 10
929.548475
 20
-33.204628
 30
0.0
 10
930.833885
 20
-21.911478
 30
0.0
 10
931.155251
 20
-15.209011
 30
0.0
  0
SPLINE
  5
268
100
AcDbEntity
  8
Calque_1
 62
7
100
AcDbSpline
 70
8
 71
3
 72
8
 73
4
 74
0
 40
0
 40
0
 40
0
 40
0
 40
1
 40
1
 40
1
 40
1
 10
931.155251
 20
-15.209011
 30
0.0
 10
931.476589
 20
-8.506572
 30
0.0
 10
930.833885
 20
-6.394844
 30
0.0
 10
925.111462
 20
-4.476382
 30
0.0
  0
SPLINE
  5
269
100
AcDbEntity
  8
Calque_1
 62
7
100
AcDbSpline
 70
8
 71
3
 72
8
 73
4
 74
0
 40
0
 40
0
 40
0
 40
0
 40
1
 40
1
 40
1
 40
1
 10
925.111462
 20
-4.476382
 30
0.0
 10
919.389068
 20
-2.557892
 30
0.0
 10
908.586928
 20
-0.832695
 30
0.0
 10
893.468227
 20
-0.305166
 30
0.0
  0
SPLINE
  5
26a
100
AcDbEntity
  8
Calque_1
 62
7
100
AcDbSpline
 70
8
 71
3
 72
8
 73
4
 74
0
 40
0
 40
0
 40
0
 40
0
 40
1
 40
1
 40
1
 40
1
 10
893.468227
 20
-0.305166
 30
0.0
 10
878.349498
 20
0.222336
 30
0.0
 10
858.914236
 20
-0.447829
 30
0.0
 10
831.456610
 20
-8.170191
 30
0.0
  0
LINE
  5
26b
100
AcDbEntity
  8
Calque_1
 62
7
100
AcDbLine
 10
831.456610
 20
-13.170181
 30
0.0
 11
823.956611
 21
-13.170181
 31
0.0
  0
LINE
  5
26c
100
AcDbEntity
  8
Calque_1
 62
7
100
AcDbLine
 10
831.456610
 20
-63.170194
 30
0.0
 11
831.456610
 21
-68.170184
 31
0.0
  0
LINE
  5
26d
100
AcDbEntity
  8
Calque_1
 62
7
100
AcDbLine
 10
818.956621
 20
-8.170191
 30
0.0
 11
823.956611
 21
-8.170191
 31
0.0
  0
LINE
  5
26e
100
AcDbEntity
  8
Calque_1
 62
7
100
AcDbLine
 10
831.456610
 20
-8.170191
 30
0.0
 11
831.456610
 21
-13.170181
 31
0.0
  0
LINE
  5
26f
100
AcDbEntity
  8
Calque_1
 62
7
100
AcDbLine
 10
823.956611
 20
-68.170184
 30
0.0
 11
823.956611
 21
-63.170194
 31
0.0
  0
LINE
  5
270
100
AcDbEntity
  8
Calque_1
 62
7
100
AcDbLine
 10
818.956621
 20
-68.170184
 30
0.0
 11
818.956621
 21
-8.170191
 31
0.0
  0
LINE
  5
271
100
AcDbEntity
  8
Calque_1
 62
1
100
AcDbLine
 10
637.419265
 20
10.983498
 30
0.0
 11
635.811925
 21
7.448580
 31
0.0
  0
SPLINE
  5
272
100
AcDbEntity
  8
Calque_1
 62
1
100
AcDbSpline
 70
8
 71
3
 72
8
 73
4
 74
0
 40
0
 40
0
 40
0
 40
0
 40
1
 40
1
 40
1
 40
1
 10
635.811925
 20
7.448580
 30
0.0
 10
637.271183
 20
7.194692
 30
0.0
 10
638.675775
 20
6.938519
 30
0.0
 10
640.045823
 20
6.681838
 30
0.0
  0
SPLINE
  5
273
100
AcDbEntity
  8
Calque_1
 62
1
100
AcDbSpline
 70
8
 71
3
 72
8
 73
4
 74
0
 40
0
 40
0
 40
0
 40
0
 40
1
 40
1
 40
1
 40
1
 10
640.045823
 20
6.681838
 30
0.0
 10
627.687594
 20
3.392256
 30
0.0
 10
610.492584
 20
-0.364884
 30
0.0
 10
600.363290
 20
0.999350
 30
0.0
  0
SPLINE
  5
274
100
AcDbEntity
  8
Calque_1
 62
1
100
AcDbSpline
 70
8
 71
3
 72
8
 73
4
 74
0
 40
0
 40
0
 40
0
 40
0
 40
1
 40
1
 40
1
 40
1
 10
600.363290
 20
0.999350
 30
0.0
 10
586.906963
 20
3.120391
 30
0.0
 10
577.191830
 20
7.437996
 30
0.0
 10
571.258559
 20
7.955676
 30
0.0
  0
SPLINE
  5
275
100
AcDbEntity
  8
Calque_1
 62
1
100
AcDbSpline
 70
8
 71
3
 72
8
 73
4
 74
0
 40
0
 40
0
 40
0
 40
0
 40
1
 40
1
 40
1
 40
1
 10
571.258559
 20
7.955676
 30
0.0
 10
569.775255
 20
8.085104
 30
0.0
 10
568.478501
 20
8.048866
 30
0.0
 10
567.315717
 20
7.453518
 30
0.0
  0
SPLINE
  5
276
100
AcDbEntity
  8
Calque_1
 62
1
100
AcDbSpline
 70
8
 71
3
 72
8
 73
4
 74
0
 40
0
 40
0
 40
0
 40
0
 40
1
 40
1
 40
1
 40
1
 10
567.315717
 20
7.453518
 30
0.0
 10
566.152961
 20
6.858171
 30
0.0
 10
565.391498
 20
5.534069
 30
0.0
 10
565.313153
 20
4.158913
 30
0.0
  0
SPLINE
  5
277
100
AcDbEntity
  8
Calque_1
 62
1
100
AcDbSpline
 70
8
 71
3
 72
8
 73
4
 74
0
 40
0
 40
0
 40
0
 40
0
 40
1
 40
1
 40
1
 40
1
 10
565.313153
 20
4.158913
 30
0.0
 10
565.156463
 20
1.408601
 30
0.0
 10
566.592635
 20
-2.053081
 30
0.0
 10
569.454425
 20
-7.654176
 30
0.0
  0
SPLINE
  5
278
100
AcDbEntity
  8
Calque_1
 62
1
100
AcDbSpline
 70
8
 71
3
 72
8
 73
4
 74
0
 40
0
 40
0
 40
0
 40
0
 40
1
 40
1
 40
1
 40
1
 10
569.454425
 20
-7.654176
 30
0.0
 10
574.961032
 20
-18.431706
 30
0.0
 10
575.619372
 20
-28.528150
 30
0.0
 10
574.342599
 20
-35.837818
 30
0.0
  0
SPLINE
  5
279
100
AcDbEntity
  8
Calque_1
 62
1
100
AcDbSpline
 70
8
 71
3
 72
8
 73
4
 74
0
 40
0
 40
0
 40
0
 40
0
 40
1
 40
1
 40
1
 40
1
 10
574.342599
 20
-35.837818
 30
0.0
 10
573.354567
 20
-39.562164
 30
0.0
 10
572.475219
 20
-44.459199
 30
0.0
 10
569.694201
 20
-46.849452
 30
0.0
  0
SPLINE
  5
27a
100
AcDbEntity
  8
Calque_1
 62
1
100
AcDbSpline
 70
8
 71
3
 72
8
 73
4
 74
0
 40
0
 40
0
 40
0
 40
0
 40
1
 40
1
 40
1
 40
1
 10
569.694201
 20
-46.849452
 30
0.0
 10
568.814035
 20
-47.586588
 30
0.0
 10
566.365249
 20
-47.035832
 30
0.0
 10
566.050684
 20
-45.261952
 30
0.0
  0
SPLINE
  5
27b
100
AcDbEntity
  8
Calque_1
 62
1
100
AcDbSpline
 70
8
 71
3
 72
8
 73
4
 74
0
 40
0
 40
0
 40
0
 40
0
 40
1
 40
1
 40
1
 40
1
 10
566.050684
 20
-45.261952
 30
0.0
 10
565.736119
 20
-43.488072
 30
0.0
 10
567.106506
 20
-42.404960
 30
0.0
 10
567.923172
 20
-41.496600
 30
0.0
  0
SPLINE
  5
27c
100
AcDbEntity
  8
Calque_1
 62
1
100
AcDbSpline
 70
8
 71
3
 72
8
 73
4
 74
0
 40
0
 40
0
 40
0
 40
0
 40
1
 40
1
 40
1
 40
1
 10
567.923172
 20
-41.496600
 30
0.0
 10
566.904434
 20
-40.449188
 30
0.0
 10
566.285803
 20
-40.971553
 30
0.0
 10
565.114158
 20
-39.508372
 30
0.0
  0
SPLINE
  5
27d
100
AcDbEntity
  8
Calque_1
 62
1
100
AcDbSpline
 70
8
 71
3
 72
8
 73
4
 74
0
 40
0
 40
0
 40
0
 40
0
 40
1
 40
1
 40
1
 40
1
 10
565.114158
 20
-39.508372
 30
0.0
 10
563.549969
 20
-41.370841
 30
0.0
 10
562.681487
 20
-43.652608
 30
0.0
 10
563.106090
 20
-45.835202
 30
0.0
  0
SPLINE
  5
27e
100
AcDbEntity
  8
Calque_1
 62
1
100
AcDbSpline
 70
8
 71
3
 72
8
 73
4
 74
0
 40
0
 40
0
 40
0
 40
0
 40
1
 40
1
 40
1
 40
1
 10
563.106090
 20
-45.835202
 30
0.0
 10
563.530694
 20
-48.017824
 30
0.0
 10
565.613945
 20
-49.777028
 30
0.0
 10
568.555406
 20
-49.923586
 30
0.0
  0
SPLINE
  5
27f
100
AcDbEntity
  8
Calque_1
 62
1
100
AcDbSpline
 70
8
 71
3
 72
8
 73
4
 74
0
 40
0
 40
0
 40
0
 40
0
 40
1
 40
1
 40
1
 40
1
 10
568.555406
 20
-49.923586
 30
0.0
 10
569.677494
 20
-49.979466
 30
0.0
 10
570.687736
 20
-49.493648
 30
0.0
 10
571.558420
 20
-48.790830
 30
0.0
  0
SPLINE
  5
280
100
AcDbEntity
  8
Calque_1
 62
1
100
AcDbSpline
 70
8
 71
3
 72
8
 73
4
 74
0
 40
0
 40
0
 40
0
 40
0
 40
1
 40
1
 40
1
 40
1
 10
571.558420
 20
-48.790830
 30
0.0
 10
572.429104
 20
-48.087984
 30
0.0
 10
573.210803
 20
-47.132154
 30
0.0
 10
573.936368
 20
-45.953171
 30
0.0
  0
SPLINE
  5
281
100
AcDbEntity
  8
Calque_1
 62
1
100
AcDbSpline
 70
8
 71
3
 72
8
 73
4
 74
0
 40
0
 40
0
 40
0
 40
0
 40
1
 40
1
 40
1
 40
1
 10
573.936368
 20
-45.953171
 30
0.0
 10
575.387470
 20
-43.595232
 30
0.0
 10
576.603989
 20
-40.325152
 30
0.0
 10
577.297691
 20
-36.353749
 30
0.0
  0
SPLINE
  5
282
100
AcDbEntity
  8
Calque_1
 62
1
100
AcDbSpline
 70
8
 71
3
 72
8
 73
4
 74
0
 40
0
 40
0
 40
0
 40
0
 40
1
 40
1
 40
1
 40
1
 10
577.297691
 20
-36.353749
 30
0.0
 10
578.685039
 20
-28.410971
 30
0.0
 10
577.068611
 20
-17.971176
 30
0.0
 10
571.260760
 20
-6.604112
 30
0.0
  0
SPLINE
  5
283
100
AcDbEntity
  8
Calque_1
 62
1
100
AcDbSpline
 70
8
 71
3
 72
8
 73
4
 74
0
 40
0
 40
0
 40
0
 40
0
 40
1
 40
1
 40
1
 40
1
 10
571.260760
 20
-6.604112
 30
0.0
 10
568.465321
 20
-1.132895
 30
0.0
 10
568.114970
 20
2.082576
 30
0.0
 10
568.189957
 20
3.398775
 30
0.0
  0
SPLINE
  5
284
100
AcDbEntity
  8
Calque_1
 62
1
100
AcDbSpline
 70
8
 71
3
 72
8
 73
4
 74
0
 40
0
 40
0
 40
0
 40
0
 40
1
 40
1
 40
1
 40
1
 10
568.189957
 20
3.398775
 30
0.0
 10
568.227436
 20
4.056861
 30
0.0
 10
568.834101
 20
5.359768
 30
0.0
 10
570.727755
 20
5.648848
 30
0.0
  0
SPLINE
  5
285
100
AcDbEntity
  8
Calque_1
 62
1
100
AcDbSpline
 70
8
 71
3
 72
8
 73
4
 74
0
 40
0
 40
0
 40
0
 40
0
 40
1
 40
1
 40
1
 40
1
 10
570.727755
 20
5.648848
 30
0.0
 10
572.621382
 20
5.937900
 30
0.0
 10
590.484609
 20
0.195384
 30
0.0
 10
600.243656
 20
-0.857136
 30
0.0
  0
SPLINE
  5
286
100
AcDbEntity
  8
Calque_1
 62
1
100
AcDbSpline
 70
8
 71
3
 72
8
 73
4
 74
0
 40
0
 40
0
 40
0
 40
0
 40
1
 40
1
 40
1
 40
1
 10
600.243656
 20
-0.857136
 30
0.0
 10
615.824185
 20
-2.373459
 30
0.0
 10
626.261977
 20
1.415515
 30
0.0
 10
646.092095
 20
5.491199
 30
0.0
  0
SPLINE
  5
287
100
AcDbEntity
  8
Calque_1
 62
1
100
AcDbSpline
 70
8
 71
3
 72
8
 73
4
 74
0
 40
0
 40
0
 40
0
 40
0
 40
1
 40
1
 40
1
 40
1
 10
646.092095
 20
5.491199
 30
0.0
 10
665.922242
 20
1.415515
 30
0.0
 10
676.360034
 20
-2.373459
 30
0.0
 10
691.940518
 20
-0.857136
 30
0.0
  0
SPLINE
  5
288
100
AcDbEntity
  8
Calque_1
 62
1
100
AcDbSpline
 70
8
 71
3
 72
8
 73
4
 74
0
 40
0
 40
0
 40
0
 40
0
 40
1
 40
1
 40
1
 40
1
 10
691.940518
 20
-0.857136
 30
0.0
 10
701.699593
 20
0.195384
 30
0.0
 10
719.562820
 20
5.937900
 30
0.0
 10
721.456447
 20
5.648848
 30
0.0
  0
SPLINE
  5
289
100
AcDbEntity
  8
Calque_1
 62
1
100
AcDbSpline
 70
8
 71
3
 72
8
 73
4
 74
0
 40
0
 40
0
 40
0
 40
0
 40
1
 40
1
 40
1
 40
1
 10
721.456447
 20
5.648848
 30
0.0
 10
723.350073
 20
5.359768
 30
0.0
 10
723.956738
 20
4.056861
 30
0.0
 10
723.994245
 20
3.398775
 30
0.0
  0
SPLINE
  5
28a
100
AcDbEntity
  8
Calque_1
 62
1
100
AcDbSpline
 70
8
 71
3
 72
8
 73
4
 74
0
 40
0
 40
0
 40
0
 40
0
 40
1
 40
1
 40
1
 40
1
 10
723.994245
 20
3.398775
 30
0.0
 10
724.069232
 20
2.082576
 30
0.0
 10
723.718853
 20
-1.132895
 30
0.0
 10
720.923414
 20
-6.604112
 30
0.0
  0
SPLINE
  5
28b
100
AcDbEntity
  8
Calque_1
 62
1
100
AcDbSpline
 70
8
 71
3
 72
8
 73
4
 74
0
 40
0
 40
0
 40
0
 40
0
 40
1
 40
1
 40
1
 40
1
 10
720.923414
 20
-6.604112
 30
0.0
 10
715.115562
 20
-17.971176
 30
0.0
 10
713.499163
 20
-28.410971
 30
0.0
 10
714.886511
 20
-36.353749
 30
0.0
  0
SPLINE
  5
28c
100
AcDbEntity
  8
Calque_1
 62
1
100
AcDbSpline
 70
8
 71
3
 72
8
 73
4
 74
0
 40
0
 40
0
 40
0
 40
0
 40
1
 40
1
 40
1
 40
1
 10
714.886511
 20
-36.353749
 30
0.0
 10
715.580185
 20
-40.325152
 30
0.0
 10
716.796704
 20
-43.595232
 30
0.0
 10
718.247806
 20
-45.953171
 30
0.0
  0
SPLINE
  5
28d
100
AcDbEntity
  8
Calque_1
 62
1
100
AcDbSpline
 70
8
 71
3
 72
8
 73
4
 74
0
 40
0
 40
0
 40
0
 40
0
 40
1
 40
1
 40
1
 40
1
 10
718.247806
 20
-45.953171
 30
0.0
 10
718.973371
 20
-47.132154
 30
0.0
 10
719.755070
 20
-48.087984
 30
0.0
 10
720.625754
 20
-48.790830
 30
0.0
  0
SPLINE
  5
28e
100
AcDbEntity
  8
Calque_1
 62
1
100
AcDbSpline
 70
8
 71
3
 72
8
 73
4
 74
0
 40
0
 40
0
 40
0
 40
0
 40
1
 40
1
 40
1
 40
1
 10
720.625754
 20
-48.790830
 30
0.0
 10
721.496438
 20
-49.493648
 30
0.0
 10
722.506680
 20
-49.979466
 30
0.0
 10
723.628768
 20
-49.923586
 30
0.0
  0
SPLINE
  5
28f
100
AcDbEntity
  8
Calque_1
 62
1
100
AcDbSpline
 70
8
 71
3
 72
8
 73
4
 74
0
 40
0
 40
0
 40
0
 40
0
 40
1
 40
1
 40
1
 40
1
 10
723.628768
 20
-49.923586
 30
0.0
 10
726.570229
 20
-49.777028
 30
0.0
 10
728.653480
 20
-48.017824
 30
0.0
 10
729.078084
 20
-45.835202
 30
0.0
  0
SPLINE
  5
290
100
AcDbEntity
  8
Calque_1
 62
1
100
AcDbSpline
 70
8
 71
3
 72
8
 73
4
 74
0
 40
0
 40
0
 40
0
 40
0
 40
1
 40
1
 40
1
 40
1
 10
729.078084
 20
-45.835202
 30
0.0
 10
729.502687
 20
-43.652608
 30
0.0
 10
728.634204
 20
-41.370841
 30
0.0
 10
727.070016
 20
-39.508372
 30
0.0
  0
SPLINE
  5
291
100
AcDbEntity
  8
Calque_1
 62
1
100
AcDbSpline
 70
8
 71
3
 72
8
 73
4
 74
0
 40
0
 40
0
 40
0
 40
0
 40
1
 40
1
 40
1
 40
1
 10
727.070016
 20
-39.508372
 30
0.0
 10
725.898370
 20
-40.971553
 30
0.0
 10
725.280304
 20
-40.449188
 30
0.0
 10
724.261566
 20
-41.496600
 30
0.0
  0
SPLINE
  5
292
100
AcDbEntity
  8
Calque_1
 62
1
100
AcDbSpline
 70
8
 71
3
 72
8
 73
4
 74
0
 40
0
 40
0
 40
0
 40
0
 40
1
 40
1
 40
1
 40
1
 10
724.261566
 20
-41.496600
 30
0.0
 10
725.078204
 20
-42.404960
 30
0.0
 10
726.448055
 20
-43.488072
 30
0.0
 10
726.133490
 20
-45.261952
 30
0.0
  0
SPLINE
  5
293
100
AcDbEntity
  8
Calque_1
 62
1
100
AcDbSpline
 70
8
 71
3
 72
8
 73
4
 74
0
 40
0
 40
0
 40
0
 40
0
 40
1
 40
1
 40
1
 40
1
 10
726.133490
 20
-45.261952
 30
0.0
 10
725.818953
 20
-47.035832
 30
0.0
 10
723.370139
 20
-47.586588
 30
0.0
 10
722.489973
 20
-46.849452
 30
0.0
  0
SPLINE
  5
294
100
AcDbEntity
  8
Calque_1
 62
1
100
AcDbSpline
 70
8
 71
3
 72
8
 73
4
 74
0
 40
0
 40
0
 40
0
 40
0
 40
1
 40
1
 40
1
 40
1
 10
722.489973
 20
-46.849452
 30
0.0
 10
719.708955
 20
-44.459199
 30
0.0
 10
718.829635
 20
-39.562164
 30
0.0
 10
717.841575
 20
-35.837818
 30
0.0
  0
SPLINE
  5
295
100
AcDbEntity
  8
Calque_1
 62
1
100
AcDbSpline
 70
8
 71
3
 72
8
 73
4
 74
0
 40
0
 40
0
 40
0
 40
0
 40
1
 40
1
 40
1
 40
1
 10
717.841575
 20
-35.837818
 30
0.0
 10
716.564802
 20
-28.528150
 30
0.0
 10
717.223142
 20
-18.431706
 30
0.0
 10
722.729749
 20
-7.654176
 30
0.0
  0
SPLINE
  5
296
100
AcDbEntity
  8
Calque_1
 62
1
100
AcDbSpline
 70
8
 71
3
 72
8
 73
4
 74
0
 40
0
 40
0
 40
0
 40
0
 40
1
 40
1
 40
1
 40
1
 10
722.729749
 20
-7.654176
 30
0.0
 10
725.591538
 20
-2.053081
 30
0.0
 10
727.027711
 20
1.408601
 30
0.0
 10
726.871021
 20
4.158913
 30
0.0
  0
SPLINE
  5
297
100
AcDbEntity
  8
Calque_1
 62
1
100
AcDbSpline
 70
8
 71
3
 72
8
 73
4
 74
0
 40
0
 40
0
 40
0
 40
0
 40
1
 40
1
 40
1
 40
1
 10
726.871021
 20
4.158913
 30
0.0
 10
726.792676
 20
5.534069
 30
0.0
 10
726.031241
 20
6.858171
 30
0.0
 10
724.868457
 20
7.453518
 30
0.0
  0
SPLINE
  5
298
100
AcDbEntity
  8
Calque_1
 62
1
100
AcDbSpline
 70
8
 71
3
 72
8
 73
4
 74
0
 40
0
 40
0
 40
0
 40
0
 40
1
 40
1
 40
1
 40
1
 10
724.868457
 20
7.453518
 30
0.0
 10
723.705701
 20
8.048866
 30
0.0
 10
722.408947
 20
8.085104
 30
0.0
 10
720.925615
 20
7.955676
 30
0.0
  0
SPLINE
  5
299
100
AcDbEntity
  8
Calque_1
 62
1
100
AcDbSpline
 70
8
 71
3
 72
8
 73
4
 74
0
 40
0
 40
0
 40
0
 40
0
 40
1
 40
1
 40
1
 40
1
 10
720.925615
 20
7.955676
 30
0.0
 10
714.992344
 20
7.437996
 30
0.0
 10
705.277239
 20
3.120391
 30
0.0
 10
691.820912
 20
0.999350
 30
0.0
  0
SPLINE
  5
29a
100
AcDbEntity
  8
Calque_1
 62
1
100
AcDbSpline
 70
8
 71
3
 72
8
 73
4
 74
0
 40
0
 40
0
 40
0
 40
0
 40
1
 40
1
 40
1
 40
1
 10
691.820912
 20
0.999350
 30
0.0
 10
681.691590
 20
-0.364884
 30
0.0
 10
664.496597
 20
3.392256
 30
0.0
 10
652.138368
 20
6.681838
 30
0.0
  0
SPLINE
  5
29b
100
AcDbEntity
  8
Calque_1
 62
1
100
AcDbSpline
 70
8
 71
3
 72
8
 73
4
 74
0
 40
0
 40
0
 40
0
 40
0
 40
1
 40
1
 40
1
 40
1
 10
652.138368
 20
6.681838
 30
0.0
 10
653.508416
 20
6.938519
 30
0.0
 10
654.913036
 20
7.194692
 30
0.0
 10
656.372266
 20
7.448580
 30
0.0
  0
LINE
  5
29c
100
AcDbEntity
  8
Calque_1
 62
1
100
AcDbLine
 10
656.372266
 20
7.448580
 30
0.0
 11
654.764925
 21
10.983498
 31
0.0
  0
SPLINE
  5
29d
100
AcDbEntity
  8
Calque_1
 62
1
100
AcDbSpline
 70
8
 71
3
 72
8
 73
4
 74
0
 40
0
 40
0
 40
0
 40
0
 40
1
 40
1
 40
1
 40
1
 10
654.764925
 20
10.983498
 30
0.0
 10
654.764925
 20
10.983498
 30
0.0
 10
651.322209
 20
9.853339
 30
0.0
 10
646.092095
 20
8.350364
 30
0.0
  0
SPLINE
  5
29e
100
AcDbEntity
  8
Calque_1
 62
1
100
AcDbSpline
 70
8
 71
3
 72
8
 73
4
 74
0
 40
0
 40
0
 40
0
 40
0
 40
1
 40
1
 40
1
 40
1
 10
646.092095
 20
8.350364
 30
0.0
 10
640.862010
 20
9.853339
 30
0.0
 10
637.419265
 20
10.983498
 30
0.0
 10
637.419265
 20
10.983498
 30
0.0
  0
LINE
  5
29f
100
AcDbEntity
  8
Calque_1
 62
1
100
AcDbLine
 10
637.419265
 20
10.983498
 30
0.0
 11
637.419265
 21
10.983498
 31
0.0
  0
LINE
  5
2a0
100
AcDbEntity
  8
Calque_1
 62
7
100
AcDbLine
 10
209.421039
 20
-43.102444
 30
0.0
 11
209.421039
 21
16.897529
 31
0.0
  0
LINE
  5
2a1
100
AcDbEntity
  8
Calque_1
 62
7
100
AcDbLine
 10
221.921056
 20
-38.102454
 30
0.0
 11
221.921056
 21
-43.102444
 31
0.0
  0
LINE
  5
2a2
100
AcDbEntity
  8
Calque_1
 62
7
100
AcDbLine
 10
221.921056
 20
16.897529
 30
0.0
 11
320.273906
 21
16.897529
 31
0.0
  0
LINE
  5
2a3
100
AcDbEntity
  8
Calque_1
 62
7
100
AcDbLine
 10
214.421029
 20
11.897559
 30
0.0
 11
214.421029
 21
16.897529
 31
0.0
  0
LINE
  5
2a4
100
AcDbEntity
  8
Calque_1
 62
7
100
AcDbLine
 10
214.421029
 20
-38.102454
 30
0.0
 11
221.921056
 21
-38.102454
 31
0.0
  0
LINE
  5
2a5
100
AcDbEntity
  8
Calque_1
 62
7
100
AcDbLine
 10
221.921056
 20
11.897559
 30
0.0
 11
214.421029
 21
11.897559
 31
0.0
  0
LINE
  5
2a6
100
AcDbEntity
  8
Calque_1
 62
7
100
AcDbLine
 10
221.921056
 20
-43.102444
 30
0.0
 11
320.273906
 21
-43.102444
 31
0.0
  0
LINE
  5
2a7
100
AcDbEntity
  8
Calque_1
 62
7
100
AcDbLine
 10
221.921056
 20
16.897529
 30
0.0
 11
221.921056
 21
11.897559
 31
0.0
  0
SPLINE
  5
2a8
100
AcDbEntity
  8
Calque_1
 62
7
100
AcDbSpline
 70
8
 71
3
 72
8
 73
4
 74
0
 40
0
 40
0
 40
0
 40
0
 40
1
 40
1
 40
1
 40
1
 10
324.425479
 20
-13.102448
 30
0.0
 10
322.099630
 20
-3.984610
 30
0.0
 10
320.857993
 20
6.612778
 30
0.0
 10
320.273906
 20
16.897529
 30
0.0
  0
LINE
  5
2a9
100
AcDbEntity
  8
Calque_1
 62
7
100
AcDbLine
 10
214.421029
 20
-43.102444
 30
0.0
 11
209.421039
 21
-43.102444
 31
0.0
  0
SPLINE
  5
2aa
100
AcDbEntity
  8
Calque_1
 62
7
100
AcDbSpline
 70
8
 71
3
 72
8
 73
4
 74
0
 40
0
 40
0
 40
0
 40
0
 40
1
 40
1
 40
1
 40
1
 10
320.273906
 20
-43.102444
 30
0.0
 10
320.857993
 20
-32.817674
 30
0.0
 10
322.099630
 20
-22.220286
 30
0.0
 10
324.425479
 20
-13.102448
 30
0.0
  0
LINE
  5
2ab
100
AcDbEntity
  8
Calque_1
 62
7
100
AcDbLine
 10
209.421039
 20
16.897529
 30
0.0
 11
214.421029
 21
16.897529
 31
0.0
  0
LINE
  5
2ac
100
AcDbEntity
  8
Calque_1
 62
7
100
AcDbLine
 10
214.421029
 20
-43.102444
 30
0.0
 11
214.421029
 21
-38.102454
 31
0.0
  0
SPLINE
  5
2ad
100
AcDbEntity
  8
Calque_1
 62
1
100
AcDbSpline
 70
8
 71
3
 72
8
 73
4
 74
0
 40
0
 40
0
 40
0
 40
0
 40
1
 40
1
 40
1
 40
1
 10
258.844432
 20
-13.465310
 30
0.0
 10
259.702939
 20
-16.739208
 30
0.0
 10
261.420943
 20
-19.724730
 30
0.0
 10
263.786364
 20
-22.135093
 30
0.0
  0
LINE
  5
2ae
100
AcDbEntity
  8
Calque_1
 62
1
100
AcDbLine
 10
263.786364
 20
-22.135093
 30
0.0
 11
264.617658
 21
-22.059576
 31
0.0
  0
LINE
  5
2af
100
AcDbEntity
  8
Calque_1
 62
1
100
AcDbLine
 10
264.617658
 20
-22.059576
 30
0.0
 11
265.318086
 21
-22.786235
 31
0.0
  0
SPLINE
  5
2b0
100
AcDbEntity
  8
Calque_1
 62
1
100
AcDbSpline
 70
8
 71
3
 72
8
 73
4
 74
0
 40
0
 40
0
 40
0
 40
0
 40
1
 40
1
 40
1
 40
1
 10
265.318086
 20
-22.786235
 30
0.0
 10
265.703351
 20
-23.185923
 30
0.0
 10
266.196470
 20
-23.742983
 30
0.0
 10
266.413994
 20
-24.024240
 30
0.0
  0
LINE
  5
2b1
100
AcDbEntity
  8
Calque_1
 62
1
100
AcDbLine
 10
266.413994
 20
-24.024240
 30
0.0
 11
266.809467
 21
-24.535875
 31
0.0
  0
LINE
  5
2b2
100
AcDbEntity
  8
Calque_1
 62
1
100
AcDbLine
 10
266.809467
 20
-24.535875
 30
0.0
 11
266.598466
 21
-23.811236
 31
0.0
  0
SPLINE
  5
2b3
100
AcDbEntity
  8
Calque_1
 62
1
100
AcDbSpline
 70
8
 71
3
 72
8
 73
4
 74
0
 40
0
 40
0
 40
0
 40
0
 40
1
 40
1
 40
1
 40
1
 10
266.598466
 20
-23.811236
 30
0.0
 10
266.003720
 20
-21.769415
 30
0.0
 10
266.771210
 20
-21.057919
 30
0.0
 10
269.365603
 20
-21.245584
 30
0.0
  0
SPLINE
  5
2b4
100
AcDbEntity
  8
Calque_1
 62
1
100
AcDbSpline
 70
8
 71
3
 72
8
 73
4
 74
0
 40
0
 40
0
 40
0
 40
0
 40
1
 40
1
 40
1
 40
1
 10
269.365603
 20
-21.245584
 30
0.0
 10
270.080558
 20
-21.297291
 30
0.0
 10
270.325335
 20
-21.381414
 30
0.0
 10
270.541645
 20
-21.648546
 30
0.0
  0
SPLINE
  5
2b5
100
AcDbEntity
  8
Calque_1
 62
1
100
AcDbSpline
 70
8
 71
3
 72
8
 73
4
 74
0
 40
0
 40
0
 40
0
 40
0
 40
1
 40
1
 40
1
 40
1
 10
270.541645
 20
-21.648546
 30
0.0
 10
271.136335
 20
-22.382951
 30
0.0
 10
270.491209
 20
-23.395114
 30
0.0
 10
269.304348
 20
-24.709617
 30
0.0
  0
SPLINE
  5
2b6
100
AcDbEntity
  8
Calque_1
 62
1
100
AcDbSpline
 70
8
 71
3
 72
8
 73
4
 74
0
 40
0
 40
0
 40
0
 40
0
 40
1
 40
1
 40
1
 40
1
 10
269.304348
 20
-24.709617
 30
0.0
 10
269.120520
 20
-24.913217
 30
0.0
 10
268.620025
 20
-25.127243
 30
0.0
 10
268.574560
 20
-25.338823
 30
0.0
  0
SPLINE
  5
2b7
100
AcDbEntity
  8
Calque_1
 62
1
100
AcDbSpline
 70
8
 71
3
 72
8
 73
4
 74
0
 40
0
 40
0
 40
0
 40
0
 40
1
 40
1
 40
1
 40
1
 10
268.574560
 20
-25.338823
 30
0.0
 10
268.524857
 20
-25.570087
 30
0.0
 10
268.940279
 20
-25.790314
 30
0.0
 10
268.968979
 20
-25.790314
 30
0.0
  0
SPLINE
  5
2b8
100
AcDbEntity
  8
Calque_1
 62
1
100
AcDbSpline
 70
8
 71
3
 72
8
 73
4
 74
0
 40
0
 40
0
 40
0
 40
0
 40
1
 40
1
 40
1
 40
1
 10
268.968979
 20
-25.790314
 30
0.0
 10
269.023944
 20
-25.790314
 30
0.0
 10
269.447796
 20
-25.492406
 30
0.0
 10
269.910959
 20
-25.128498
 30
0.0
  0
SPLINE
  5
2b9
100
AcDbEntity
  8
Calque_1
 62
1
100
AcDbSpline
 70
8
 71
3
 72
8
 73
4
 74
0
 40
0
 40
0
 40
0
 40
0
 40
1
 40
1
 40
1
 40
1
 10
269.910959
 20
-25.128498
 30
0.0
 10
270.697135
 20
-24.510843
 30
0.0
 10
271.700377
 20
-24.108540
 30
0.0
 10
271.700377
 20
-24.410768
 30
0.0
  0
SPLINE
  5
2ba
100
AcDbEntity
  8
Calque_1
 62
1
100
AcDbSpline
 70
8
 71
3
 72
8
 73
4
 74
0
 40
0
 40
0
 40
0
 40
0
 40
1
 40
1
 40
1
 40
1
 10
271.700377
 20
-24.410768
 30
0.0
 10
271.700377
 20
-24.737569
 30
0.0
 10
271.186296
 20
-25.214391
 30
0.0
 10
270.299232
 20
-25.710470
 30
0.0
  0
SPLINE
  5
2bb
100
AcDbEntity
  8
Calque_1
 62
1
100
AcDbSpline
 70
8
 71
3
 72
8
 73
4
 74
0
 40
0
 40
0
 40
0
 40
0
 40
1
 40
1
 40
1
 40
1
 10
270.299232
 20
-25.710470
 30
0.0
 10
269.956262
 20
-25.902294
 30
0.0
 10
269.667822
 20
-26.075271
 30
0.0
 10
269.497910
 20
-26.186929
 30
0.0
  0
SPLINE
  5
2bc
100
AcDbEntity
  8
Calque_1
 62
1
100
AcDbSpline
 70
8
 71
3
 72
8
 73
4
 74
0
 40
0
 40
0
 40
0
 40
0
 40
1
 40
1
 40
1
 40
1
 10
269.497910
 20
-26.186929
 30
0.0
 10
269.543028
 20
-26.208157
 30
0.0
 10
269.644084
 20
-26.464438
 30
0.0
 10
269.689283
 20
-26.485272
 30
0.0
  0
SPLINE
  5
2bd
100
AcDbEntity
  8
Calque_1
 62
1
100
AcDbSpline
 70
8
 71
3
 72
8
 73
4
 74
0
 40
0
 40
0
 40
0
 40
0
 40
1
 40
1
 40
1
 40
1
 10
269.689283
 20
-26.485272
 30
0.0
 10
269.829618
 20
-26.445591
 30
0.0
 10
270.032004
 20
-26.307838
 30
0.0
 10
270.228727
 20
-26.240148
 30
0.0
  0
SPLINE
  5
2be
100
AcDbEntity
  8
Calque_1
 62
1
100
AcDbSpline
 70
8
 71
3
 72
8
 73
4
 74
0
 40
0
 40
0
 40
0
 40
0
 40
1
 40
1
 40
1
 40
1
 10
270.228727
 20
-26.240148
 30
0.0
 10
271.388529
 20
-25.841120
 30
0.0
 10
272.187197
 20
-25.585692
 30
0.0
 10
272.778403
 20
-25.780806
 30
0.0
  0
SPLINE
  5
2bf
100
AcDbEntity
  8
Calque_1
 62
1
100
AcDbSpline
 70
8
 71
3
 72
8
 73
4
 74
0
 40
0
 40
0
 40
0
 40
0
 40
1
 40
1
 40
1
 40
1
 10
272.778403
 20
-25.780806
 30
0.0
 10
273.695543
 20
-26.083492
 30
0.0
 10
273.827898
 20
-26.473149
 30
0.0
 10
273.559270
 20
-27.452332
 30
0.0
  0
SPLINE
  5
2c0
100
AcDbEntity
  8
Calque_1
 62
1
100
AcDbSpline
 70
8
 71
3
 72
8
 73
4
 74
0
 40
0
 40
0
 40
0
 40
0
 40
1
 40
1
 40
1
 40
1
 10
273.559270
 20
-27.452332
 30
0.0
 10
282.028799
 20
-29.591750
 30
0.0
 10
290.348733
 20
-25.842889
 30
0.0
 10
293.282605
 20
-19.768046
 30
0.0
  0
SPLINE
  5
2c1
100
AcDbEntity
  8
Calque_1
 62
1
100
AcDbSpline
 70
8
 71
3
 72
8
 73
4
 74
0
 40
0
 40
0
 40
0
 40
0
 40
1
 40
1
 40
1
 40
1
 10
293.282605
 20
-19.768046
 30
0.0
 10
298.807298
 20
-11.272198
 30
0.0
 10
296.263679
 20
0.245080
 30
0.0
 10
287.569040
 20
6.102374
 30
0.0
  0
LINE
  5
2c2
100
AcDbEntity
  8
Calque_1
 62
1
100
AcDbLine
 10
287.569040
 20
6.102374
 30
0.0
 11
286.547796
 21
6.746019
 31
0.0
  0
SPLINE
  5
2c3
100
AcDbEntity
  8
Calque_1
 62
1
100
AcDbSpline
 70
8
 71
3
 72
8
 73
4
 74
0
 40
0
 40
0
 40
0
 40
0
 40
1
 40
1
 40
1
 40
1
 10
286.547796
 20
6.746019
 30
0.0
 10
278.335626
 20
11.569569
 30
0.0
 10
268.021587
 20
10.043872
 30
0.0
 10
262.249164
 20
2.867425
 30
0.0
  0
SPLINE
  5
2c4
100
AcDbEntity
  8
Calque_1
 62
1
100
AcDbSpline
 70
8
 71
3
 72
8
 73
4
 74
0
 40
0
 40
0
 40
0
 40
0
 40
1
 40
1
 40
1
 40
1
 10
262.249164
 20
2.867425
 30
0.0
 10
262.501616
 20
2.634231
 30
0.0
 10
262.723532
 20
2.379785
 30
0.0
 10
262.938644
 20
2.082826
 30
0.0
  0
SPLINE
  5
2c5
100
AcDbEntity
  8
Calque_1
 62
1
100
AcDbSpline
 70
8
 71
3
 72
8
 73
4
 74
0
 40
0
 40
0
 40
0
 40
0
 40
1
 40
1
 40
1
 40
1
 10
262.938644
 20
2.082826
 30
0.0
 10
263.619910
 20
1.142367
 30
0.0
 10
263.141287
 20
0.527399
 30
0.0
 10
261.995812
 20
-1.992024
 30
0.0
  0
SPLINE
  5
2c6
100
AcDbEntity
  8
Calque_1
 62
1
100
AcDbSpline
 70
8
 71
3
 72
8
 73
4
 74
0
 40
0
 40
0
 40
0
 40
0
 40
1
 40
1
 40
1
 40
1
 10
261.995812
 20
-1.992024
 30
0.0
 10
261.648924
 20
-2.689154
 30
0.0
 10
261.609750
 20
-2.986096
 30
0.0
 10
262.063196
 20
-3.187147
 30
0.0
  0
SPLINE
  5
2c7
100
AcDbEntity
  8
Calque_1
 62
1
100
AcDbSpline
 70
8
 71
3
 72
8
 73
4
 74
0
 40
0
 40
0
 40
0
 40
0
 40
1
 40
1
 40
1
 40
1
 10
262.063196
 20
-3.187147
 30
0.0
 10
262.236575
 20
-3.264023
 30
0.0
 10
262.338533
 20
-2.934004
 30
0.0
 10
262.814413
 20
-2.477196
 30
0.0
  0
SPLINE
  5
2c8
100
AcDbEntity
  8
Calque_1
 62
1
100
AcDbSpline
 70
8
 71
3
 72
8
 73
4
 74
0
 40
0
 40
0
 40
0
 40
0
 40
1
 40
1
 40
1
 40
1
 10
262.814413
 20
-2.477196
 30
0.0
 10
263.791898
 20
-1.538555
 30
0.0
 10
264.521372
 20
-1.328543
 30
0.0
 10
265.254675
 20
-1.328543
 30
0.0
  0
SPLINE
  5
2c9
100
AcDbEntity
  8
Calque_1
 62
1
100
AcDbSpline
 70
8
 71
3
 72
8
 73
4
 74
0
 40
0
 40
0
 40
0
 40
0
 40
1
 40
1
 40
1
 40
1
 10
265.254675
 20
-1.328543
 30
0.0
 10
265.884131
 20
-1.328543
 30
0.0
 10
266.984198
 20
-2.518308
 30
0.0
 10
267.727242
 20
-4.002852
 30
0.0
  0
SPLINE
  5
2ca
100
AcDbEntity
  8
Calque_1
 62
1
100
AcDbSpline
 70
8
 71
3
 72
8
 73
4
 74
0
 40
0
 40
0
 40
0
 40
0
 40
1
 40
1
 40
1
 40
1
 10
267.727242
 20
-4.002852
 30
0.0
 10
268.405533
 20
-5.358058
 30
0.0
 10
268.425281
 20
-5.485876
 30
0.0
 10
268.067646
 20
-6.190631
 30
0.0
  0
SPLINE
  5
2cb
100
AcDbEntity
  8
Calque_1
 62
1
100
AcDbSpline
 70
8
 71
3
 72
8
 73
4
 74
0
 40
0
 40
0
 40
0
 40
0
 40
1
 40
1
 40
1
 40
1
 10
268.067646
 20
-6.190631
 30
0.0
 10
267.644108
 20
-7.025272
 30
0.0
 10
266.778401
 20
-7.379351
 30
0.0
 10
265.161003
 20
-7.379351
 30
0.0
  0
SPLINE
  5
2cc
100
AcDbEntity
  8
Calque_1
 62
1
100
AcDbSpline
 70
8
 71
3
 72
8
 73
4
 74
0
 40
0
 40
0
 40
0
 40
0
 40
1
 40
1
 40
1
 40
1
 10
265.161003
 20
-7.379351
 30
0.0
 10
264.419705
 20
-7.379351
 30
0.0
 10
263.111074
 20
-6.626219
 30
0.0
 10
262.643648
 20
-6.504482
 30
0.0
  0
SPLINE
  5
2cd
100
AcDbEntity
  8
Calque_1
 62
1
100
AcDbSpline
 70
8
 71
3
 72
8
 73
4
 74
0
 40
0
 40
0
 40
0
 40
0
 40
1
 40
1
 40
1
 40
1
 10
262.643648
 20
-6.504482
 30
0.0
 10
262.176181
 20
-6.382729
 30
0.0
 10
262.054734
 20
-6.644624
 30
0.0
 10
262.013967
 20
-6.936611
 30
0.0
  0
SPLINE
  5
2ce
100
AcDbEntity
  8
Calque_1
 62
1
100
AcDbSpline
 70
8
 71
3
 72
8
 73
4
 74
0
 40
0
 40
0
 40
0
 40
0
 40
1
 40
1
 40
1
 40
1
 10
262.013967
 20
-6.936611
 30
0.0
 10
261.976458
 20
-7.205247
 30
0.0
 10
262.611770
 20
-7.374315
 30
0.0
 10
263.506772
 20
-7.688633
 30
0.0
  0
SPLINE
  5
2cf
100
AcDbEntity
  8
Calque_1
 62
1
100
AcDbSpline
 70
8
 71
3
 72
8
 73
4
 74
0
 40
0
 40
0
 40
0
 40
0
 40
1
 40
1
 40
1
 40
1
 10
263.506772
 20
-7.688633
 30
0.0
 10
264.558656
 20
-8.058027
 30
0.0
 10
265.669743
 20
-8.861369
 30
0.0
 10
265.669759
 20
-9.252353
 30
0.0
  0
SPLINE
  5
2d0
100
AcDbEntity
  8
Calque_1
 62
1
100
AcDbSpline
 70
8
 71
3
 72
8
 73
4
 74
0
 40
0
 40
0
 40
0
 40
0
 40
1
 40
1
 40
1
 40
1
 10
265.669759
 20
-9.252353
 30
0.0
 10
265.669759
 20
-9.682150
 30
0.0
 10
264.371240
 20
-9.337362
 30
0.0
 10
262.939521
 20
-8.527408
 30
0.0
  0
SPLINE
  5
2d1
100
AcDbEntity
  8
Calque_1
 62
1
100
AcDbSpline
 70
8
 71
3
 72
8
 73
4
 74
0
 40
0
 40
0
 40
0
 40
0
 40
1
 40
1
 40
1
 40
1
 10
262.939521
 20
-8.527408
 30
0.0
 10
262.208993
 20
-8.114166
 30
0.0
 10
261.544852
 20
-7.742398
 30
0.0
 10
261.463712
 20
-7.701310
 30
0.0
  0
SPLINE
  5
2d2
100
AcDbEntity
  8
Calque_1
 62
1
100
AcDbSpline
 70
8
 71
3
 72
8
 73
4
 74
0
 40
0
 40
0
 40
0
 40
0
 40
1
 40
1
 40
1
 40
1
 10
261.463712
 20
-7.701310
 30
0.0
 10
261.406367
 20
-7.672287
 30
0.0
 10
261.104912
 20
-8.362097
 30
0.0
 10
261.320803
 20
-8.560107
 30
0.0
  0
SPLINE
  5
2d3
100
AcDbEntity
  8
Calque_1
 62
1
100
AcDbSpline
 70
8
 71
3
 72
8
 73
4
 74
0
 40
0
 40
0
 40
0
 40
0
 40
1
 40
1
 40
1
 40
1
 10
261.320803
 20
-8.560107
 30
0.0
 10
262.572917
 20
-9.385553
 30
0.0
 10
264.736830
 20
-10.833143
 30
0.0
 10
264.782825
 20
-12.219816
 30
0.0
  0
SPLINE
  5
2d4
100
AcDbEntity
  8
Calque_1
 62
1
100
AcDbSpline
 70
8
 71
3
 72
8
 73
4
 74
0
 40
0
 40
0
 40
0
 40
0
 40
1
 40
1
 40
1
 40
1
 10
264.782825
 20
-12.219816
 30
0.0
 10
264.785962
 20
-13.642527
 30
0.0
 10
264.024843
 20
-14.147043
 30
0.0
 10
261.685082
 20
-14.273253
 30
0.0
  0
SPLINE
  5
2d5
100
AcDbEntity
  8
Calque_1
 62
1
100
AcDbSpline
 70
8
 71
3
 72
8
 73
4
 74
0
 40
0
 40
0
 40
0
 40
0
 40
1
 40
1
 40
1
 40
1
 10
261.685082
 20
-14.273253
 30
0.0
 10
259.956516
 20
-14.366491
 30
0.0
 10
259.181699
 20
-14.212288
 30
0.0
 10
258.844432
 20
-13.465310
 30
0.0
  0
LINE
  5
2d6
100
AcDbEntity
  8
Calque_1
 62
1
100
AcDbLine
 10
258.844432
 20
-13.465310
 30
0.0
 11
258.844432
 21
-13.465310
 31
0.0
  0
SPLINE
  5
2d7
100
AcDbEntity
  8
Calque_1
 62
1
100
AcDbSpline
 70
8
 71
3
 72
8
 73
4
 74
0
 40
0
 40
0
 40
0
 40
0
 40
1
 40
1
 40
1
 40
1
 10
267.901619
 20
-1.833253
 30
0.0
 10
267.913428
 20
-1.469867
 30
0.0
 10
269.145206
 20
-0.878403
 30
0.0
 10
269.431853
 20
-1.102033
 30
0.0
  0
LINE
  5
2d8
100
AcDbEntity
  8
Calque_1
 62
1
100
AcDbLine
 10
269.431853
 20
-1.102033
 30
0.0
 11
278.555966
 21
-9.290683
 31
0.0
  0
LINE
  5
2d9
100
AcDbEntity
  8
Calque_1
 62
1
100
AcDbLine
 10
278.555966
 20
-9.290683
 30
0.0
 11
279.183185
 21
-8.818543
 31
0.0
  0
SPLINE
  5
2da
100
AcDbEntity
  8
Calque_1
 62
1
100
AcDbSpline
 70
8
 71
3
 72
8
 73
4
 74
0
 40
0
 40
0
 40
0
 40
0
 40
1
 40
1
 40
1
 40
1
 10
279.183185
 20
-8.818543
 30
0.0
 10
279.769195
 20
-8.889289
 30
0.0
 10
280.282898
 20
-9.193665
 30
0.0
 10
279.940387
 20
-9.363038
 30
0.0
  0
LINE
  5
2db
100
AcDbEntity
  8
Calque_1
 62
1
100
AcDbLine
 10
279.940387
 20
-9.363038
 30
0.0
 11
279.046261
 21
-9.639461
 31
0.0
  0
LINE
  5
2dc
100
AcDbEntity
  8
Calque_1
 62
1
100
AcDbLine
 10
279.046261
 20
-9.639461
 30
0.0
 11
284.452780
 21
-10.063063
 31
0.0
  0
SPLINE
  5
2dd
100
AcDbEntity
  8
Calque_1
 62
1
100
AcDbSpline
 70
8
 71
3
 72
8
 73
4
 74
0
 40
0
 40
0
 40
0
 40
0
 40
1
 40
1
 40
1
 40
1
 10
284.452780
 20
-10.063063
 30
0.0
 10
284.756351
 20
-10.087131
 30
0.0
 10
285.771361
 20
-10.935221
 30
0.0
 10
285.746610
 20
-11.160814
 30
0.0
  0
SPLINE
  5
2de
100
AcDbEntity
  8
Calque_1
 62
1
100
AcDbSpline
 70
8
 71
3
 72
8
 73
4
 74
0
 40
0
 40
0
 40
0
 40
0
 40
1
 40
1
 40
1
 40
1
 10
285.746610
 20
-11.160814
 30
0.0
 10
285.722293
 20
-11.382690
 30
0.0
 10
282.852596
 20
-10.768212
 30
0.0
 10
282.555131
 20
-10.733286
 30
0.0
  0
LINE
  5
2df
100
AcDbEntity
  8
Calque_1
 62
1
100
AcDbLine
 10
282.555131
 20
-10.733286
 30
0.0
 11
279.086046
 21
-10.197502
 31
0.0
  0
SPLINE
  5
2e0
100
AcDbEntity
  8
Calque_1
 62
1
100
AcDbSpline
 70
8
 71
3
 72
8
 73
4
 74
0
 40
0
 40
0
 40
0
 40
0
 40
1
 40
1
 40
1
 40
1
 10
279.086046
 20
-10.197502
 30
0.0
 10
279.166687
 20
-10.395069
 30
0.0
 10
279.700291
 20
-10.581560
 30
0.0
 10
279.733456
 20
-10.841461
 30
0.0
  0
SPLINE
  5
2e1
100
AcDbEntity
  8
Calque_1
 62
1
100
AcDbSpline
 70
8
 71
3
 72
8
 73
4
 74
0
 40
0
 40
0
 40
0
 40
0
 40
1
 40
1
 40
1
 40
1
 10
279.733456
 20
-10.841461
 30
0.0
 10
279.770531
 20
-11.131944
 30
0.0
 10
279.293347
 20
-11.479475
 30
0.0
 10
279.103084
 20
-11.335673
 30
0.0
  0
LINE
  5
2e2
100
AcDbEntity
  8
Calque_1
 62
1
100
AcDbLine
 10
279.103084
 20
-11.335673
 30
0.0
 11
278.466887
 21
-10.338440
 31
0.0
  0
LINE
  5
2e3
100
AcDbEntity
  8
Calque_1
 62
1
100
AcDbLine
 10
278.466887
 20
-10.338440
 30
0.0
 11
271.806847
 21
-14.203078
 31
0.0
  0
SPLINE
  5
2e4
100
AcDbEntity
  8
Calque_1
 62
1
100
AcDbSpline
 70
8
 71
3
 72
8
 73
4
 74
0
 40
0
 40
0
 40
0
 40
0
 40
1
 40
1
 40
1
 40
1
 10
271.806847
 20
-14.203078
 30
0.0
 10
271.509598
 20
-14.362485
 30
0.0
 10
270.927851
 20
-14.758722
 30
0.0
 10
270.455068
 20
-14.165078
 30
0.0
  0
SPLINE
  5
2e5
100
AcDbEntity
  8
Calque_1
 62
1
100
AcDbSpline
 70
8
 71
3
 72
8
 73
4
 74
0
 40
0
 40
0
 40
0
 40
0
 40
1
 40
1
 40
1
 40
1
 10
270.455068
 20
-14.165078
 30
0.0
 10
269.982285
 20
-13.571434
 30
0.0
 10
270.697464
 20
-12.840673
 30
0.0
 10
270.846937
 20
-12.765735
 30
0.0
  0
LINE
  5
2e6
100
AcDbEntity
  8
Calque_1
 62
1
100
AcDbLine
 10
270.846937
 20
-12.765735
 30
0.0
 11
277.641071
 21
-10.086527
 31
0.0
  0
LINE
  5
2e7
100
AcDbEntity
  8
Calque_1
 62
1
100
AcDbLine
 10
277.641071
 20
-10.086527
 30
0.0
 11
276.785853
 21
-9.987080
 31
0.0
  0
SPLINE
  5
2e8
100
AcDbEntity
  8
Calque_1
 62
1
100
AcDbSpline
 70
8
 71
3
 72
8
 73
4
 74
0
 40
0
 40
0
 40
0
 40
0
 40
1
 40
1
 40
1
 40
1
 10
276.785853
 20
-9.987080
 30
0.0
 10
276.558539
 20
-9.967855
 30
0.0
 10
276.156454
 20
-9.882549
 30
0.0
 10
276.152585
 20
-9.654454
 30
0.0
  0
SPLINE
  5
2e9
100
AcDbEntity
  8
Calque_1
 62
1
100
AcDbSpline
 70
8
 71
3
 72
8
 73
4
 74
0
 40
0
 40
0
 40
0
 40
0
 40
1
 40
1
 40
1
 40
1
 10
276.152585
 20
-9.654454
 30
0.0
 10
276.148000
 20
-9.386148
 30
0.0
 10
276.565634
 20
-9.318820
 30
0.0
 10
276.832267
 20
-9.348913
 30
0.0
  0
LINE
  5
2ea
100
AcDbEntity
  8
Calque_1
 62
1
100
AcDbLine
 10
276.832267
 20
-9.348913
 30
0.0
 11
277.902805
 21
-9.591036
 31
0.0
  0
LINE
  5
2eb
100
AcDbEntity
  8
Calque_1
 62
1
100
AcDbLine
 10
277.902805
 20
-9.591036
 30
0.0
 11
270.118501
 21
-3.748333
 31
0.0
  0
SPLINE
  5
2ec
100
AcDbEntity
  8
Calque_1
 62
1
100
AcDbSpline
 70
8
 71
3
 72
8
 73
4
 74
0
 40
0
 40
0
 40
0
 40
0
 40
1
 40
1
 40
1
 40
1
 10
270.118501
 20
-3.748333
 30
0.0
 10
270.000408
 20
-3.661555
 30
0.0
 10
267.896865
 20
-1.979725
 30
0.0
 10
267.901619
 20
-1.833253
 30
0.0
  0
LINE
  5
2ed
100
AcDbEntity
  8
Calque_1
 62
1
100
AcDbLine
 10
267.901619
 20
-1.833253
 30
0.0
 11
267.901619
 21
-1.833253
 31
0.0
  0
SPLINE
  5
2ee
100
AcDbEntity
  8
Calque_1
 62
1
100
AcDbSpline
 70
8
 71
3
 72
8
 73
4
 74
0
 40
0
 40
0
 40
0
 40
0
 40
1
 40
1
 40
1
 40
1
 10
260.804816
 20
-3.975583
 30
0.0
 10
260.381269
 20
-4.810224
 30
0.0
 10
259.515523
 20
-5.164271
 30
0.0
 10
257.898125
 20
-5.164271
 30
0.0
  0
SPLINE
  5
2ef
100
AcDbEntity
  8
Calque_1
 62
1
100
AcDbSpline
 70
8
 71
3
 72
8
 73
4
 74
0
 40
0
 40
0
 40
0
 40
0
 40
1
 40
1
 40
1
 40
1
 10
257.898125
 20
-5.164271
 30
0.0
 10
257.156834
 20
-5.164271
 30
0.0
 10
256.167870
 20
-5.064654
 30
0.0
 10
255.700428
 20
-4.942901
 30
0.0
  0
SPLINE
  5
2f0
100
AcDbEntity
  8
Calque_1
 62
1
100
AcDbSpline
 70
8
 71
3
 72
8
 73
4
 74
0
 40
0
 40
0
 40
0
 40
0
 40
1
 40
1
 40
1
 40
1
 10
255.700428
 20
-4.942901
 30
0.0
 10
255.232978
 20
-4.821148
 30
0.0
 10
254.805787
 20
-4.721531
 30
0.0
 10
254.751096
 20
-4.721531
 30
0.0
  0
SPLINE
  5
2f1
100
AcDbEntity
  8
Calque_1
 62
1
100
AcDbSpline
 70
8
 71
3
 72
8
 73
4
 74
0
 40
0
 40
0
 40
0
 40
0
 40
1
 40
1
 40
1
 40
1
 10
254.751096
 20
-4.721531
 30
0.0
 10
254.479862
 20
-4.721531
 30
0.0
 10
255.348851
 20
-5.159388
 30
0.0
 10
256.243853
 20
-5.473705
 30
0.0
  0
SPLINE
  5
2f2
100
AcDbEntity
  8
Calque_1
 62
1
100
AcDbSpline
 70
8
 71
3
 72
8
 73
4
 74
0
 40
0
 40
0
 40
0
 40
0
 40
1
 40
1
 40
1
 40
1
 10
256.243853
 20
-5.473705
 30
0.0
 10
257.295729
 20
-5.843100
 30
0.0
 10
258.406865
 20
-6.646313
 30
0.0
 10
258.406865
 20
-7.037289
 30
0.0
  0
SPLINE
  5
2f3
100
AcDbEntity
  8
Calque_1
 62
1
100
AcDbSpline
 70
8
 71
3
 72
8
 73
4
 74
0
 40
0
 40
0
 40
0
 40
0
 40
1
 40
1
 40
1
 40
1
 10
258.406865
 20
-7.037289
 30
0.0
 10
258.406865
 20
-7.467094
 30
0.0
 10
257.108369
 20
-7.122322
 30
0.0
 10
255.676618
 20
-6.312376
 30
0.0
  0
SPLINE
  5
2f4
100
AcDbEntity
  8
Calque_1
 62
1
100
AcDbSpline
 70
8
 71
3
 72
8
 73
4
 74
0
 40
0
 40
0
 40
0
 40
0
 40
1
 40
1
 40
1
 40
1
 10
255.676618
 20
-6.312376
 30
0.0
 10
254.946098
 20
-5.899118
 30
0.0
 10
254.281981
 20
-5.527383
 30
0.0
 10
254.200817
 20
-5.486294
 30
0.0
  0
SPLINE
  5
2f5
100
AcDbEntity
  8
Calque_1
 62
1
100
AcDbSpline
 70
8
 71
3
 72
8
 73
4
 74
0
 40
0
 40
0
 40
0
 40
0
 40
1
 40
1
 40
1
 40
1
 10
254.200817
 20
-5.486294
 30
0.0
 10
254.119646
 20
-5.445190
 30
0.0
 10
254.385289
 20
-5.702266
 30
0.0
 10
254.791139
 20
-6.057536
 30
0.0
  0
SPLINE
  5
2f6
100
AcDbEntity
  8
Calque_1
 62
1
100
AcDbSpline
 70
8
 71
3
 72
8
 73
4
 74
0
 40
0
 40
0
 40
0
 40
0
 40
1
 40
1
 40
1
 40
1
 10
254.791139
 20
-6.057536
 30
0.0
 10
256.648818
 20
-7.683750
 30
0.0
 10
257.517670
 20
-8.940553
 30
0.0
 10
257.519995
 20
-10.004865
 30
0.0
  0
SPLINE
  5
2f7
100
AcDbEntity
  8
Calque_1
 62
1
100
AcDbSpline
 70
8
 71
3
 72
8
 73
4
 74
0
 40
0
 40
0
 40
0
 40
0
 40
1
 40
1
 40
1
 40
1
 10
257.519995
 20
-10.004865
 30
0.0
 10
257.523132
 20
-11.427567
 30
0.0
 10
256.761972
 20
-11.932100
 30
0.0
 10
254.422187
 20
-12.058318
 30
0.0
  0
SPLINE
  5
2f8
100
AcDbEntity
  8
Calque_1
 62
1
100
AcDbSpline
 70
8
 71
3
 72
8
 73
4
 74
0
 40
0
 40
0
 40
0
 40
0
 40
1
 40
1
 40
1
 40
1
 10
254.422187
 20
-12.058318
 30
0.0
 10
251.976415
 20
-12.190247
 30
0.0
 10
251.439078
 20
-11.828422
 30
0.0
 10
251.350667
 20
-9.990048
 30
0.0
  0
SPLINE
  5
2f9
100
AcDbEntity
  8
Calque_1
 62
1
100
AcDbSpline
 70
8
 71
3
 72
8
 73
4
 74
0
 40
0
 40
0
 40
0
 40
0
 40
1
 40
1
 40
1
 40
1
 10
251.350667
 20
-9.990048
 30
0.0
 10
251.322562
 20
-9.405695
 30
0.0
 10
251.364197
 20
-8.645332
 30
0.0
 10
251.443173
 20
-8.300359
 30
0.0
  0
SPLINE
  5
2fa
100
AcDbEntity
  8
Calque_1
 62
1
100
AcDbSpline
 70
8
 71
3
 72
8
 73
4
 74
0
 40
0
 40
0
 40
0
 40
0
 40
1
 40
1
 40
1
 40
1
 10
251.443173
 20
-8.300359
 30
0.0
 10
251.522156
 20
-7.955394
 30
0.0
 10
251.569592
 20
-7.673140
 30
0.0
 10
251.548597
 20
-7.673140
 30
0.0
  0
SPLINE
  5
2fb
100
AcDbEntity
  8
Calque_1
 62
1
100
AcDbSpline
 70
8
 71
3
 72
8
 73
4
 74
0
 40
0
 40
0
 40
0
 40
0
 40
1
 40
1
 40
1
 40
1
 10
251.548597
 20
-7.673140
 30
0.0
 10
251.527594
 20
-7.673140
 30
0.0
 10
251.192676
 20
-8.221038
 30
0.0
 10
250.804330
 20
-8.890681
 30
0.0
  0
SPLINE
  5
2fc
100
AcDbEntity
  8
Calque_1
 62
1
100
AcDbSpline
 70
8
 71
3
 72
8
 73
4
 74
0
 40
0
 40
0
 40
0
 40
0
 40
1
 40
1
 40
1
 40
1
 10
250.804330
 20
-8.890681
 30
0.0
 10
249.391715
 20
-11.326543
 30
0.0
 10
248.835154
 20
-11.740533
 30
0.0
 10
247.119853
 20
-11.631313
 30
0.0
  0
SPLINE
  5
2fd
100
AcDbEntity
  8
Calque_1
 62
1
100
AcDbSpline
 70
8
 71
3
 72
8
 73
4
 74
0
 40
0
 40
0
 40
0
 40
0
 40
1
 40
1
 40
1
 40
1
 10
247.119853
 20
-11.631313
 30
0.0
 10
246.390041
 20
-11.584835
 30
0.0
 10
245.941711
 20
-11.441298
 30
0.0
 10
245.013664
 20
-10.957004
 30
0.0
  0
SPLINE
  5
2fe
100
AcDbEntity
  8
Calque_1
 62
1
100
AcDbSpline
 70
8
 71
3
 72
8
 73
4
 74
0
 40
0
 40
0
 40
0
 40
0
 40
1
 40
1
 40
1
 40
1
 10
245.013664
 20
-10.957004
 30
0.0
 10
244.085850
 20
-10.472822
 30
0.0
 10
243.618319
 20
-10.323116
 30
0.0
 10
242.819345
 20
-10.254340
 30
0.0
  0
SPLINE
  5
2ff
100
AcDbEntity
  8
Calque_1
 62
1
100
AcDbSpline
 70
8
 71
3
 72
8
 73
4
 74
0
 40
0
 40
0
 40
0
 40
0
 40
1
 40
1
 40
1
 40
1
 10
242.819345
 20
-10.254340
 30
0.0
 10
240.692910
 20
-10.071308
 30
0.0
 10
240.402024
 20
-9.933346
 30
0.0
 10
240.402024
 20
-9.107860
 30
0.0
  0
SPLINE
  5
300
100
AcDbEntity
  8
Calque_1
 62
1
100
AcDbSpline
 70
8
 71
3
 72
8
 73
4
 74
0
 40
0
 40
0
 40
0
 40
0
 40
1
 40
1
 40
1
 40
1
 10
240.402024
 20
-9.107860
 30
0.0
 10
240.402024
 20
-8.404810
 30
0.0
 10
241.890349
 20
-7.026004
 30
0.0
 10
243.501223
 20
-6.236715
 30
0.0
  0
SPLINE
  5
301
100
AcDbEntity
  8
Calque_1
 62
1
100
AcDbSpline
 70
8
 71
3
 72
8
 73
4
 74
0
 40
0
 40
0
 40
0
 40
0
 40
1
 40
1
 40
1
 40
1
 10
243.501223
 20
-6.236715
 30
0.0
 10
245.060962
 20
-5.472483
 30
0.0
 10
247.710166
 20
-4.779335
 30
0.0
 10
249.932438
 20
-4.554024
 30
0.0
  0
SPLINE
  5
302
100
AcDbEntity
  8
Calque_1
 62
1
100
AcDbSpline
 70
8
 71
3
 72
8
 73
4
 74
0
 40
0
 40
0
 40
0
 40
0
 40
1
 40
1
 40
1
 40
1
 10
249.932438
 20
-4.554024
 30
0.0
 10
251.603827
 20
-4.384594
 30
0.0
 10
251.622416
 20
-4.378569
 30
0.0
 10
251.419524
 20
-4.072352
 30
0.0
  0
SPLINE
  5
303
100
AcDbEntity
  8
Calque_1
 62
1
100
AcDbSpline
 70
8
 71
3
 72
8
 73
4
 74
0
 40
0
 40
0
 40
0
 40
0
 40
1
 40
1
 40
1
 40
1
 10
251.419524
 20
-4.072352
 30
0.0
 10
251.231963
 20
-3.789269
 30
0.0
 10
251.035602
 20
-3.755275
 30
0.0
 10
249.165503
 20
-3.682092
 30
0.0
  0
SPLINE
  5
304
100
AcDbEntity
  8
Calque_1
 62
1
100
AcDbSpline
 70
8
 71
3
 72
8
 73
4
 74
0
 40
0
 40
0
 40
0
 40
0
 40
1
 40
1
 40
1
 40
1
 10
249.165503
 20
-3.682092
 30
0.0
 10
249.165503
 20
-3.682092
 30
0.0
 10
247.292452
 20
-3.972317
 30
0.0
 10
246.993345
 20
-3.674691
 30
0.0
  0
SPLINE
  5
305
100
AcDbEntity
  8
Calque_1
 62
1
100
AcDbSpline
 70
8
 71
3
 72
8
 73
4
 74
0
 40
0
 40
0
 40
0
 40
0
 40
1
 40
1
 40
1
 40
1
 10
246.993345
 20
-3.674691
 30
0.0
 10
246.694239
 20
-3.377025
 30
0.0
 10
246.537752
 20
-3.129045
 30
0.0
 10
247.095793
 20
-3.120656
 30
0.0
  0
SPLINE
  5
306
100
AcDbEntity
  8
Calque_1
 62
1
100
AcDbSpline
 70
8
 71
3
 72
8
 73
4
 74
0
 40
0
 40
0
 40
0
 40
0
 40
1
 40
1
 40
1
 40
1
 10
247.095793
 20
-3.120656
 30
0.0
 10
247.653827
 20
-3.112266
 30
0.0
 10
250.026616
 20
-2.984793
 30
0.0
 10
250.855498
 20
-3.337545
 30
0.0
  0
SPLINE
  5
307
100
AcDbEntity
  8
Calque_1
 62
1
100
AcDbSpline
 70
8
 71
3
 72
8
 73
4
 74
0
 40
0
 40
0
 40
0
 40
0
 40
1
 40
1
 40
1
 40
1
 10
250.855498
 20
-3.337545
 30
0.0
 10
251.025756
 20
-3.410005
 30
0.0
 10
249.042487
 20
-0.626579
 30
0.0
 10
248.553141
 20
-0.202068
 30
0.0
  0
SPLINE
  5
308
100
AcDbEntity
  8
Calque_1
 62
1
100
AcDbSpline
 70
8
 71
3
 72
8
 73
4
 74
0
 40
0
 40
0
 40
0
 40
0
 40
1
 40
1
 40
1
 40
1
 10
248.553141
 20
-0.202068
 30
0.0
 10
248.319279
 20
0.000817
 30
0.0
 10
248.249514
 20
0.147056
 30
0.0
 10
248.355380
 20
0.212494
 30
0.0
  0
SPLINE
  5
309
100
AcDbEntity
  8
Calque_1
 62
1
100
AcDbSpline
 70
8
 71
3
 72
8
 73
4
 74
0
 40
0
 40
0
 40
0
 40
0
 40
1
 40
1
 40
1
 40
1
 10
248.355380
 20
0.212494
 30
0.0
 10
248.548483
 20
0.331842
 30
0.0
 10
249.090413
 20
0.283152
 30
0.0
 10
249.090413
 20
0.065000
 30
0.0
  0
SPLINE
  5
30a
100
AcDbEntity
  8
Calque_1
 62
1
100
AcDbSpline
 70
8
 71
3
 72
8
 73
4
 74
0
 40
0
 40
0
 40
0
 40
0
 40
1
 40
1
 40
1
 40
1
 10
249.090413
 20
0.065000
 30
0.0
 10
249.090413
 20
-0.019389
 30
0.0
 10
249.640024
 20
-0.783316
 30
0.0
 10
250.347313
 20
-1.668183
 30
0.0
  0
SPLINE
  5
30b
100
AcDbEntity
  8
Calque_1
 62
1
100
AcDbSpline
 70
8
 71
3
 72
8
 73
4
 74
0
 40
0
 40
0
 40
0
 40
0
 40
1
 40
1
 40
1
 40
1
 10
250.347313
 20
-1.668183
 30
0.0
 10
251.316070
 20
-2.880157
 30
0.0
 10
251.470249
 20
-3.393346
 30
0.0
 10
251.727277
 20
-3.393346
 30
0.0
  0
SPLINE
  5
30c
100
AcDbEntity
  8
Calque_1
 62
1
100
AcDbSpline
 70
8
 71
3
 72
8
 73
4
 74
0
 40
0
 40
0
 40
0
 40
0
 40
1
 40
1
 40
1
 40
1
 10
251.727277
 20
-3.393346
 30
0.0
 10
252.062646
 20
-3.393346
 30
0.0
 10
252.064359
 20
-3.385382
 30
0.0
 10
251.827545
 20
-2.927448
 30
0.0
  0
SPLINE
  5
30d
100
AcDbEntity
  8
Calque_1
 62
1
100
AcDbSpline
 70
8
 71
3
 72
8
 73
4
 74
0
 40
0
 40
0
 40
0
 40
0
 40
1
 40
1
 40
1
 40
1
 10
251.827545
 20
-2.927448
 30
0.0
 10
251.695037
 20
-2.671208
 30
0.0
 10
251.339808
 20
-2.056899
 30
0.0
 10
251.038144
 20
-1.562332
 30
0.0
  0
SPLINE
  5
30e
100
AcDbEntity
  8
Calque_1
 62
1
100
AcDbSpline
 70
8
 71
3
 72
8
 73
4
 74
0
 40
0
 40
0
 40
0
 40
0
 40
1
 40
1
 40
1
 40
1
 10
251.038144
 20
-1.562332
 30
0.0
 10
250.736479
 20
-1.067758
 30
0.0
 10
250.219285
 20
-0.065401
 30
0.0
 10
249.888831
 20
0.665119
 30
0.0
  0
SPLINE
  5
30f
100
AcDbEntity
  8
Calque_1
 62
1
100
AcDbSpline
 70
8
 71
3
 72
8
 73
4
 74
0
 40
0
 40
0
 40
0
 40
0
 40
1
 40
1
 40
1
 40
1
 10
249.888831
 20
0.665119
 30
0.0
 10
248.810016
 20
3.050007
 30
0.0
 10
248.464842
 20
4.530344
 30
0.0
 10
248.539916
 20
6.450283
 30
0.0
  0
SPLINE
  5
310
100
AcDbEntity
  8
Calque_1
 62
1
100
AcDbSpline
 70
8
 71
3
 72
8
 73
4
 74
0
 40
0
 40
0
 40
0
 40
0
 40
1
 40
1
 40
1
 40
1
 10
248.539916
 20
6.450283
 30
0.0
 10
248.600286
 20
7.994385
 30
0.0
 10
248.894148
 20
8.596941
 30
0.0
 10
249.629076
 20
8.683631
 30
0.0
  0
SPLINE
  5
311
100
AcDbEntity
  8
Calque_1
 62
1
100
AcDbSpline
 70
8
 71
3
 72
8
 73
4
 74
0
 40
0
 40
0
 40
0
 40
0
 40
1
 40
1
 40
1
 40
1
 10
249.629076
 20
8.683631
 30
0.0
 10
249.983694
 20
8.725467
 30
0.0
 10
250.201749
 20
8.567026
 30
0.0
 10
251.090293
 20
7.621893
 30
0.0
  0
SPLINE
  5
312
100
AcDbEntity
  8
Calque_1
 62
1
100
AcDbSpline
 70
8
 71
3
 72
8
 73
4
 74
0
 40
0
 40
0
 40
0
 40
0
 40
1
 40
1
 40
1
 40
1
 10
251.090293
 20
7.621893
 30
0.0
 10
251.871867
 20
6.790542
 30
0.0
 10
252.398497
 20
6.381105
 30
0.0
 10
253.183032
 20
5.994891
 30
0.0
  0
SPLINE
  5
313
100
AcDbEntity
  8
Calque_1
 62
1
100
AcDbSpline
 70
8
 71
3
 72
8
 73
4
 74
0
 40
0
 40
0
 40
0
 40
0
 40
1
 40
1
 40
1
 40
1
 10
253.183032
 20
5.994891
 30
0.0
 10
254.392432
 20
5.399517
 30
0.0
 10
255.032031
 20
4.897808
 30
0.0
 10
255.624799
 20
4.079512
 30
0.0
  0
SPLINE
  5
314
100
AcDbEntity
  8
Calque_1
 62
1
100
AcDbSpline
 70
8
 71
3
 72
8
 73
4
 74
0
 40
0
 40
0
 40
0
 40
0
 40
1
 40
1
 40
1
 40
1
 10
255.624799
 20
4.079512
 30
0.0
 10
256.306065
 20
3.139061
 30
0.0
 10
256.175061
 20
2.162678
 30
0.0
 10
255.029578
 20
-0.356745
 30
0.0
  0
LINE
  5
315
100
AcDbEntity
  8
Calque_1
 62
1
100
AcDbLine
 10
255.029578
 20
-0.356745
 30
0.0
 11
254.564983
 21
-1.378609
 31
0.0
  0
LINE
  5
316
100
AcDbEntity
  8
Calque_1
 62
1
100
AcDbLine
 10
254.564983
 20
-1.378609
 30
0.0
 11
255.500383
 21
-0.480388
 31
0.0
  0
SPLINE
  5
317
100
AcDbEntity
  8
Calque_1
 62
1
100
AcDbSpline
 70
8
 71
3
 72
8
 73
4
 74
0
 40
0
 40
0
 40
0
 40
0
 40
1
 40
1
 40
1
 40
1
 10
255.500383
 20
-0.480388
 30
0.0
 10
256.477868
 20
0.458253
 30
0.0
 10
257.258405
 20
0.886489
 30
0.0
 10
257.991724
 20
0.886489
 30
0.0
  0
SPLINE
  5
318
100
AcDbEntity
  8
Calque_1
 62
1
100
AcDbSpline
 70
8
 71
3
 72
8
 73
4
 74
0
 40
0
 40
0
 40
0
 40
0
 40
1
 40
1
 40
1
 40
1
 10
257.991724
 20
0.886489
 30
0.0
 10
258.621172
 20
0.886489
 30
0.0
 10
259.721231
 20
-0.303389
 30
0.0
 10
260.464267
 20
-1.787933
 30
0.0
  0
SPLINE
  5
319
100
AcDbEntity
  8
Calque_1
 62
1
100
AcDbSpline
 70
8
 71
3
 72
8
 73
4
 74
0
 40
0
 40
0
 40
0
 40
0
 40
1
 40
1
 40
1
 40
1
 10
260.464267
 20
-1.787933
 30
0.0
 10
261.142565
 20
-3.143122
 30
0.0
 10
261.162450
 20
-3.270868
 30
0.0
 10
260.804816
 20
-3.975623
 30
0.0
  0
LINE
  5
31a
100
AcDbEntity
  8
Calque_1
 62
1
100
AcDbLine
 10
260.804816
 20
-3.975623
 30
0.0
 11
260.804816
 21
-3.975583
 31
0.0
  0
SPLINE
  5
31b
100
AcDbEntity
  8
Calque_1
 62
1
100
AcDbSpline
 70
8
 71
3
 72
8
 73
4
 74
0
 40
0
 40
0
 40
0
 40
0
 40
1
 40
1
 40
1
 40
1
 10
266.787354
 20
-30.209245
 30
0.0
 10
266.602898
 20
-30.686010
 30
0.0
 10
266.231010
 20
-31.339299
 30
0.0
 10
265.960927
 20
-31.660993
 30
0.0
  0
SPLINE
  5
31c
100
AcDbEntity
  8
Calque_1
 62
1
100
AcDbSpline
 70
8
 71
3
 72
8
 73
4
 74
0
 40
0
 40
0
 40
0
 40
0
 40
1
 40
1
 40
1
 40
1
 10
265.960927
 20
-31.660993
 30
0.0
 10
265.509878
 20
-32.198249
 30
0.0
 10
265.426333
 20
-32.238139
 30
0.0
 10
264.935556
 20
-32.150589
 30
0.0
  0
SPLINE
  5
31d
100
AcDbEntity
  8
Calque_1
 62
1
100
AcDbSpline
 70
8
 71
3
 72
8
 73
4
 74
0
 40
0
 40
0
 40
0
 40
0
 40
1
 40
1
 40
1
 40
1
 10
264.935556
 20
-32.150589
 30
0.0
 10
264.641678
 20
-32.098166
 30
0.0
 10
264.135592
 20
-31.871085
 30
0.0
 10
263.810914
 20
-31.645959
 30
0.0
  0
SPLINE
  5
31e
100
AcDbEntity
  8
Calque_1
 62
1
100
AcDbSpline
 70
8
 71
3
 72
8
 73
4
 74
0
 40
0
 40
0
 40
0
 40
0
 40
1
 40
1
 40
1
 40
1
 10
263.810914
 20
-31.645959
 30
0.0
 10
262.835166
 20
-30.969414
 30
0.0
 10
262.792421
 20
-30.969334
 30
0.0
 10
263.210658
 20
-31.644753
 30
0.0
  0
SPLINE
  5
31f
100
AcDbEntity
  8
Calque_1
 62
1
100
AcDbSpline
 70
8
 71
3
 72
8
 73
4
 74
0
 40
0
 40
0
 40
0
 40
0
 40
1
 40
1
 40
1
 40
1
 10
263.210658
 20
-31.644753
 30
0.0
 10
263.948321
 20
-32.836127
 30
0.0
 10
264.217383
 20
-33.555152
 30
0.0
 10
264.129109
 20
-34.099148
 30
0.0
  0
SPLINE
  5
320
100
AcDbEntity
  8
Calque_1
 62
1
100
AcDbSpline
 70
8
 71
3
 72
8
 73
4
 74
0
 40
0
 40
0
 40
0
 40
0
 40
1
 40
1
 40
1
 40
1
 10
264.129109
 20
-34.099148
 30
0.0
 10
264.026540
 20
-34.731202
 30
0.0
 10
263.397415
 20
-35.576493
 30
0.0
 10
262.794247
 20
-35.892652
 30
0.0
  0
SPLINE
  5
321
100
AcDbEntity
  8
Calque_1
 62
1
100
AcDbSpline
 70
8
 71
3
 72
8
 73
4
 74
0
 40
0
 40
0
 40
0
 40
0
 40
1
 40
1
 40
1
 40
1
 10
262.794247
 20
-35.892652
 30
0.0
 10
262.289931
 20
-36.157001
 30
0.0
 10
261.559202
 20
-36.862408
 30
0.0
 10
260.807133
 20
-37.810902
 30
0.0
  0
SPLINE
  5
322
100
AcDbEntity
  8
Calque_1
 62
1
100
AcDbSpline
 70
8
 71
3
 72
8
 73
4
 74
0
 40
0
 40
0
 40
0
 40
0
 40
1
 40
1
 40
1
 40
1
 10
260.807133
 20
-37.810902
 30
0.0
 10
260.183227
 20
-38.597762
 30
0.0
 10
259.795404
 20
-38.583959
 30
0.0
 10
259.393560
 20
-37.760604
 30
0.0
  0
SPLINE
  5
323
100
AcDbEntity
  8
Calque_1
 62
1
100
AcDbSpline
 70
8
 71
3
 72
8
 73
4
 74
0
 40
0
 40
0
 40
0
 40
0
 40
1
 40
1
 40
1
 40
1
 10
259.393560
 20
-37.760604
 30
0.0
 10
259.174700
 20
-37.312177
 30
0.0
 10
259.109327
 20
-36.866397
 30
0.0
 10
259.112199
 20
-35.842056
 30
0.0
  0
SPLINE
  5
324
100
AcDbEntity
  8
Calque_1
 62
1
100
AcDbSpline
 70
8
 71
3
 72
8
 73
4
 74
0
 40
0
 40
0
 40
0
 40
0
 40
1
 40
1
 40
1
 40
1
 10
259.112199
 20
-35.842056
 30
0.0
 10
259.116462
 20
-34.326655
 30
0.0
 10
259.432686
 20
-33.001711
 30
0.0
 10
260.256194
 20
-31.049098
 30
0.0
  0
SPLINE
  5
325
100
AcDbEntity
  8
Calque_1
 62
1
100
AcDbSpline
 70
8
 71
3
 72
8
 73
4
 74
0
 40
0
 40
0
 40
0
 40
0
 40
1
 40
1
 40
1
 40
1
 10
260.256194
 20
-31.049098
 30
0.0
 10
260.544771
 20
-30.364863
 30
0.0
 10
260.745693
 20
-29.769852
 30
0.0
 10
260.702690
 20
-29.726849
 30
0.0
  0
SPLINE
  5
326
100
AcDbEntity
  8
Calque_1
 62
1
100
AcDbSpline
 70
8
 71
3
 72
8
 73
4
 74
0
 40
0
 40
0
 40
0
 40
0
 40
1
 40
1
 40
1
 40
1
 10
260.702690
 20
-29.726849
 30
0.0
 10
260.659687
 20
-29.683854
 30
0.0
 10
260.251255
 20
-30.207089
 30
0.0
 10
260.084118
 20
-30.311451
 30
0.0
  0
SPLINE
  5
327
100
AcDbEntity
  8
Calque_1
 62
1
100
AcDbSpline
 70
8
 71
3
 72
8
 73
4
 74
0
 40
0
 40
0
 40
0
 40
0
 40
1
 40
1
 40
1
 40
1
 10
260.084118
 20
-30.311451
 30
0.0
 10
259.138760
 20
-30.065016
 30
0.0
 10
259.400896
 20
-29.551394
 30
0.0
 10
259.809352
 20
-29.448351
 30
0.0
  0
SPLINE
  5
328
100
AcDbEntity
  8
Calque_1
 62
1
100
AcDbSpline
 70
8
 71
3
 72
8
 73
4
 74
0
 40
0
 40
0
 40
0
 40
0
 40
1
 40
1
 40
1
 40
1
 10
259.809352
 20
-29.448351
 30
0.0
 10
260.043994
 20
-29.389155
 30
0.0
 10
260.306662
 20
-29.450523
 30
0.0
 10
260.340511
 20
-29.096259
 30
0.0
  0
SPLINE
  5
329
100
AcDbEntity
  8
Calque_1
 62
1
100
AcDbSpline
 70
8
 71
3
 72
8
 73
4
 74
0
 40
0
 40
0
 40
0
 40
0
 40
1
 40
1
 40
1
 40
1
 10
260.340511
 20
-29.096259
 30
0.0
 10
260.341717
 20
-29.042083
 30
0.0
 10
259.562435
 20
-28.995508
 30
0.0
 10
258.608696
 20
-28.992765
 30
0.0
  0
SPLINE
  5
32a
100
AcDbEntity
  8
Calque_1
 62
1
100
AcDbSpline
 70
8
 71
3
 72
8
 73
4
 74
0
 40
0
 40
0
 40
0
 40
0
 40
1
 40
1
 40
1
 40
1
 10
258.608696
 20
-28.992765
 30
0.0
 10
255.840553
 20
-28.984802
 30
0.0
 10
254.110966
 20
-28.550645
 30
0.0
 10
252.696670
 20
-27.508768
 30
0.0
  0
SPLINE
  5
32b
100
AcDbEntity
  8
Calque_1
 62
1
100
AcDbSpline
 70
8
 71
3
 72
8
 73
4
 74
0
 40
0
 40
0
 40
0
 40
0
 40
1
 40
1
 40
1
 40
1
 10
252.696670
 20
-27.508768
 30
0.0
 10
252.148081
 20
-27.104640
 30
0.0
 10
252.066925
 20
-26.975888
 30
0.0
 10
252.106349
 20
-26.572219
 30
0.0
  0
SPLINE
  5
32c
100
AcDbEntity
  8
Calque_1
 62
1
100
AcDbSpline
 70
8
 71
3
 72
8
 73
4
 74
0
 40
0
 40
0
 40
0
 40
0
 40
1
 40
1
 40
1
 40
1
 10
252.106349
 20
-26.572219
 30
0.0
 10
252.150244
 20
-26.122626
 30
0.0
 10
252.197189
 20
-26.091705
 30
0.0
 10
253.299388
 20
-25.786340
 30
0.0
  0
SPLINE
  5
32d
100
AcDbEntity
  8
Calque_1
 62
1
100
AcDbSpline
 70
8
 71
3
 72
8
 73
4
 74
0
 40
0
 40
0
 40
0
 40
0
 40
1
 40
1
 40
1
 40
1
 10
253.299388
 20
-25.786340
 30
0.0
 10
253.957086
 20
-25.604121
 30
0.0
 10
254.800896
 20
-25.233318
 30
0.0
 10
255.276616
 20
-24.917456
 30
0.0
  0
SPLINE
  5
32e
100
AcDbEntity
  8
Calque_1
 62
1
100
AcDbSpline
 70
8
 71
3
 72
8
 73
4
 74
0
 40
0
 40
0
 40
0
 40
0
 40
1
 40
1
 40
1
 40
1
 10
255.276616
 20
-24.917456
 30
0.0
 10
255.921725
 20
-24.489124
 30
0.0
 10
256.298914
 20
-24.348998
 30
0.0
 10
256.970737
 20
-24.288081
 30
0.0
  0
LINE
  5
32f
100
AcDbEntity
  8
Calque_1
 62
1
100
AcDbLine
 10
256.970737
 20
-24.288081
 30
0.0
 11
257.834972
 21
-24.209709
 31
0.0
  0
LINE
  5
330
100
AcDbEntity
  8
Calque_1
 62
1
100
AcDbLine
 10
257.834972
 20
-24.209709
 30
0.0
 11
258.535447
 21
-24.936400
 31
0.0
  0
SPLINE
  5
331
100
AcDbEntity
  8
Calque_1
 62
1
100
AcDbSpline
 70
8
 71
3
 72
8
 73
4
 74
0
 40
0
 40
0
 40
0
 40
0
 40
1
 40
1
 40
1
 40
1
 10
258.535447
 20
-24.936400
 30
0.0
 10
258.920704
 20
-25.336080
 30
0.0
 10
259.413887
 20
-25.893220
 30
0.0
 10
259.631412
 20
-26.174485
 30
0.0
  0
LINE
  5
332
100
AcDbEntity
  8
Calque_1
 62
1
100
AcDbLine
 10
259.631412
 20
-26.174485
 30
0.0
 11
260.026917
 21
-26.685888
 31
0.0
  0
LINE
  5
333
100
AcDbEntity
  8
Calque_1
 62
1
100
AcDbLine
 10
260.026917
 20
-26.685888
 30
0.0
 11
259.815892
 21
-25.961425
 31
0.0
  0
SPLINE
  5
334
100
AcDbEntity
  8
Calque_1
 62
1
100
AcDbSpline
 70
8
 71
3
 72
8
 73
4
 74
0
 40
0
 40
0
 40
0
 40
0
 40
1
 40
1
 40
1
 40
1
 10
259.815892
 20
-25.961425
 30
0.0
 10
259.221146
 20
-23.919612
 30
0.0
 10
259.988451
 20
-23.208140
 30
0.0
 10
262.582844
 20
-23.395806
 30
0.0
  0
SPLINE
  5
335
100
AcDbEntity
  8
Calque_1
 62
1
100
AcDbSpline
 70
8
 71
3
 72
8
 73
4
 74
0
 40
0
 40
0
 40
0
 40
0
 40
1
 40
1
 40
1
 40
1
 10
262.582844
 20
-23.395806
 30
0.0
 10
263.297798
 20
-23.447520
 30
0.0
 10
263.542761
 20
-23.531387
 30
0.0
 10
263.759071
 20
-23.798518
 30
0.0
  0
SPLINE
  5
336
100
AcDbEntity
  8
Calque_1
 62
1
100
AcDbSpline
 70
8
 71
3
 72
8
 73
4
 74
0
 40
0
 40
0
 40
0
 40
0
 40
1
 40
1
 40
1
 40
1
 10
263.759071
 20
-23.798518
 30
0.0
 10
264.353760
 20
-24.532923
 30
0.0
 10
263.972799
 20
-25.851022
 30
0.0
 10
262.785945
 20
-27.165525
 30
0.0
  0
SPLINE
  5
337
100
AcDbEntity
  8
Calque_1
 62
1
100
AcDbSpline
 70
8
 71
3
 72
8
 73
4
 74
0
 40
0
 40
0
 40
0
 40
0
 40
1
 40
1
 40
1
 40
1
 10
262.785945
 20
-27.165525
 30
0.0
 10
262.401187
 20
-27.591661
 30
0.0
 10
262.131352
 20
-27.940318
 30
0.0
 10
262.186317
 20
-27.940318
 30
0.0
  0
SPLINE
  5
338
100
AcDbEntity
  8
Calque_1
 62
1
100
AcDbSpline
 70
8
 71
3
 72
8
 73
4
 74
0
 40
0
 40
0
 40
0
 40
0
 40
1
 40
1
 40
1
 40
1
 10
262.186317
 20
-27.940318
 30
0.0
 10
262.241273
 20
-27.940318
 30
0.0
 10
262.665214
 20
-27.642587
 30
0.0
 10
263.128393
 20
-27.278695
 30
0.0
  0
SPLINE
  5
339
100
AcDbEntity
  8
Calque_1
 62
1
100
AcDbSpline
 70
8
 71
3
 72
8
 73
4
 74
0
 40
0
 40
0
 40
0
 40
0
 40
1
 40
1
 40
1
 40
1
 10
263.128393
 20
-27.278695
 30
0.0
 10
263.914561
 20
-26.661040
 30
0.0
 10
264.917770
 20
-26.258561
 30
0.0
 10
264.917770
 20
-26.560804
 30
0.0
  0
SPLINE
  5
33a
100
AcDbEntity
  8
Calque_1
 62
1
100
AcDbSpline
 70
8
 71
3
 72
8
 73
4
 74
0
 40
0
 40
0
 40
0
 40
0
 40
1
 40
1
 40
1
 40
1
 10
264.917770
 20
-26.560804
 30
0.0
 10
264.917770
 20
-26.887606
 30
0.0
 10
264.403681
 20
-27.364492
 30
0.0
 10
263.516618
 20
-27.860563
 30
0.0
  0
SPLINE
  5
33b
100
AcDbEntity
  8
Calque_1
 62
1
100
AcDbSpline
 70
8
 71
3
 72
8
 73
4
 74
0
 40
0
 40
0
 40
0
 40
0
 40
1
 40
1
 40
1
 40
1
 10
263.516618
 20
-27.860563
 30
0.0
 10
262.988540
 20
-28.155920
 30
0.0
 10
262.556475
 20
-28.423921
 30
0.0
 10
262.556475
 20
-28.456161
 30
0.0
  0
SPLINE
  5
33c
100
AcDbEntity
  8
Calque_1
 62
1
100
AcDbSpline
 70
8
 71
3
 72
8
 73
4
 74
0
 40
0
 40
0
 40
0
 40
0
 40
1
 40
1
 40
1
 40
1
 10
262.556475
 20
-28.456161
 30
0.0
 10
262.556475
 20
-28.488401
 30
0.0
 10
262.919202
 20
-28.389983
 30
0.0
 10
263.362536
 20
-28.237454
 30
0.0
  0
SPLINE
  5
33d
100
AcDbEntity
  8
Calque_1
 62
1
100
AcDbSpline
 70
8
 71
3
 72
8
 73
4
 74
0
 40
0
 40
0
 40
0
 40
0
 40
1
 40
1
 40
1
 40
1
 10
263.362536
 20
-28.237454
 30
0.0
 10
264.522346
 20
-27.838426
 30
0.0
 10
265.404494
 20
-27.735696
 30
0.0
 10
265.995709
 20
-27.930810
 30
0.0
  0
SPLINE
  5
33e
100
AcDbEntity
  8
Calque_1
 62
1
100
AcDbSpline
 70
8
 71
3
 72
8
 73
4
 74
0
 40
0
 40
0
 40
0
 40
0
 40
1
 40
1
 40
1
 40
1
 10
265.995709
 20
-27.930810
 30
0.0
 10
267.043973
 20
-28.276773
 30
0.0
 10
267.276298
 20
-28.945419
 30
0.0
 10
266.787354
 20
-30.209212
 30
0.0
  0
LINE
  5
33f
100
AcDbEntity
  8
Calque_1
 62
1
100
AcDbLine
 10
266.787354
 20
-30.209212
 30
0.0
 11
266.787354
 21
-30.209245
 31
0.0
  0
SPLINE
  5
340
100
AcDbEntity
  8
Calque_1
 62
1
100
AcDbSpline
 70
8
 71
3
 72
8
 73
4
 74
0
 40
0
 40
0
 40
0
 40
0
 40
1
 40
1
 40
1
 40
1
 10
864.342467
 20
-35.342425
 30
0.0
 10
864.374189
 20
-36.742893
 30
0.0
 10
864.621186
 20
-38.195771
 30
0.0
 10
865.072897
 20
-39.652086
 30
0.0
  0
SPLINE
  5
341
100
AcDbEntity
  8
Calque_1
 62
1
100
AcDbSpline
 70
8
 71
3
 72
8
 73
4
 74
0
 40
0
 40
0
 40
0
 40
0
 40
1
 40
1
 40
1
 40
1
 10
865.072897
 20
-39.652086
 30
0.0
 10
867.535828
 20
-47.592778
 30
0.0
 10
875.312934
 20
-48.565998
 30
0.0
 10
875.312934
 20
-48.565998
 30
0.0
  0
SPLINE
  5
342
100
AcDbEntity
  8
Calque_1
 62
1
100
AcDbSpline
 70
8
 71
3
 72
8
 73
4
 74
0
 40
0
 40
0
 40
0
 40
0
 40
1
 40
1
 40
1
 40
1
 10
875.312934
 20
-48.565998
 30
0.0
 10
876.648532
 20
-48.701842
 30
0.0
 10
877.836529
 20
-47.717406
 30
0.0
 10
877.951118
 20
-46.379796
 30
0.0
  0
SPLINE
  5
343
100
AcDbEntity
  8
Calque_1
 62
1
100
AcDbSpline
 70
8
 71
3
 72
8
 73
4
 74
0
 40
0
 40
0
 40
0
 40
0
 40
1
 40
1
 40
1
 40
1
 10
877.951118
 20
-46.379796
 30
0.0
 10
878.065708
 20
-45.042186
 30
0.0
 10
877.109377
 20
-44.038057
 30
0.0
 10
876.035111
 20
-43.910398
 30
0.0
  0
SPLINE
  5
344
100
AcDbEntity
  8
Calque_1
 62
1
100
AcDbSpline
 70
8
 71
3
 72
8
 73
4
 74
0
 40
0
 40
0
 40
0
 40
0
 40
1
 40
1
 40
1
 40
1
 10
876.035111
 20
-43.910398
 30
0.0
 10
874.960821
 20
-43.782740
 30
0.0
 10
870.139984
 20
-43.296977
 30
0.0
 10
868.970709
 20
-38.542977
 30
0.0
  0
SPLINE
  5
345
100
AcDbEntity
  8
Calque_1
 62
1
100
AcDbSpline
 70
8
 71
3
 72
8
 73
4
 74
0
 40
0
 40
0
 40
0
 40
0
 40
1
 40
1
 40
1
 40
1
 10
868.970709
 20
-38.542977
 30
0.0
 10
868.263387
 20
-35.667179
 30
0.0
 10
868.569532
 20
-32.897153
 30
0.0
 10
869.479172
 20
-31.506430
 30
0.0
  0
SPLINE
  5
346
100
AcDbEntity
  8
Calque_1
 62
1
100
AcDbSpline
 70
8
 71
3
 72
8
 73
4
 74
0
 40
0
 40
0
 40
0
 40
0
 40
1
 40
1
 40
1
 40
1
 10
869.479172
 20
-31.506430
 30
0.0
 10
870.388789
 20
-30.115708
 30
0.0
 10
872.307510
 20
-29.469954
 30
0.0
 10
874.969368
 20
-29.874410
 30
0.0
  0
SPLINE
  5
347
100
AcDbEntity
  8
Calque_1
 62
1
100
AcDbSpline
 70
8
 71
3
 72
8
 73
4
 74
0
 40
0
 40
0
 40
0
 40
0
 40
1
 40
1
 40
1
 40
1
 10
874.969368
 20
-29.874410
 30
0.0
 10
877.678030
 20
-30.285965
 30
0.0
 10
879.684931
 20
-30.911980
 30
0.0
 10
882.439266
 20
-33.538610
 30
0.0
  0
SPLINE
  5
348
100
AcDbEntity
  8
Calque_1
 62
1
100
AcDbSpline
 70
8
 71
3
 72
8
 73
4
 74
0
 40
0
 40
0
 40
0
 40
0
 40
1
 40
1
 40
1
 40
1
 10
882.439266
 20
-33.538610
 30
0.0
 10
884.299968
 20
-35.313032
 30
0.0
 10
885.768810
 20
-37.635484
 30
0.0
 10
888.523641
 20
-40.428098
 30
0.0
  0
SPLINE
  5
349
100
AcDbEntity
  8
Calque_1
 62
1
100
AcDbSpline
 70
8
 71
3
 72
8
 73
4
 74
0
 40
0
 40
0
 40
0
 40
0
 40
1
 40
1
 40
1
 40
1
 10
888.523641
 20
-40.428098
 30
0.0
 10
894.726089
 20
-46.715674
 30
0.0
 10
903.163961
 20
-42.286291
 30
0.0
 10
903.163961
 20
-42.286291
 30
0.0
  0
SPLINE
  5
34a
100
AcDbEntity
  8
Calque_1
 62
1
100
AcDbSpline
 70
8
 71
3
 72
8
 73
4
 74
0
 40
0
 40
0
 40
0
 40
0
 40
1
 40
1
 40
1
 40
1
 10
903.163961
 20
-42.286291
 30
0.0
 10
904.422187
 20
-41.823817
 30
0.0
 10
905.058987
 20
-40.421519
 30
0.0
 10
904.579171
 20
-39.169805
 30
0.0
  0
SPLINE
  5
34b
100
AcDbEntity
  8
Calque_1
 62
1
100
AcDbSpline
 70
8
 71
3
 72
8
 73
4
 74
0
 40
0
 40
0
 40
0
 40
0
 40
1
 40
1
 40
1
 40
1
 10
904.579171
 20
-39.169805
 30
0.0
 10
904.099377
 20
-37.918092
 30
0.0
 10
902.688419
 20
-37.300737
 30
0.0
 10
901.443444
 20
-37.797782
 30
0.0
  0
SPLINE
  5
34c
100
AcDbEntity
  8
Calque_1
 62
1
100
AcDbSpline
 70
8
 71
3
 72
8
 73
4
 74
0
 40
0
 40
0
 40
0
 40
0
 40
1
 40
1
 40
1
 40
1
 10
901.443444
 20
-37.797782
 30
0.0
 10
901.443444
 20
-37.797782
 30
0.0
 10
894.808798
 20
-40.157723
 30
0.0
 10
890.054752
 20
-36.766611
 30
0.0
  0
SPLINE
  5
34d
100
AcDbEntity
  8
Calque_1
 62
1
100
AcDbSpline
 70
8
 71
3
 72
8
 73
4
 74
0
 40
0
 40
0
 40
0
 40
0
 40
1
 40
1
 40
1
 40
1
 10
890.054752
 20
-36.766611
 30
0.0
 10
887.467644
 20
-34.921193
 30
0.0
 10
886.017637
 20
-32.678080
 30
0.0
 10
884.155736
 20
-30.383597
 30
0.0
  0
SPLINE
  5
34e
100
AcDbEntity
  8
Calque_1
 62
1
100
AcDbSpline
 70
8
 71
3
 72
8
 73
4
 74
0
 40
0
 40
0
 40
0
 40
0
 40
1
 40
1
 40
1
 40
1
 10
884.155736
 20
-30.383597
 30
0.0
 10
882.293835
 20
-28.089090
 30
0.0
 10
879.740010
 20
-25.736950
 30
0.0
 10
875.691410
 20
-25.121811
 30
0.0
  0
SPLINE
  5
34f
100
AcDbEntity
  8
Calque_1
 62
1
100
AcDbSpline
 70
8
 71
3
 72
8
 73
4
 74
0
 40
0
 40
0
 40
0
 40
0
 40
1
 40
1
 40
1
 40
1
 10
875.691410
 20
-25.121811
 30
0.0
 10
871.596028
 20
-24.499549
 30
0.0
 10
867.925858
 20
-26.092454
 30
0.0
 10
866.023236
 20
-29.001353
 30
0.0
  0
SPLINE
  5
350
100
AcDbEntity
  8
Calque_1
 62
1
100
AcDbSpline
 70
8
 71
3
 72
8
 73
4
 74
0
 40
0
 40
0
 40
0
 40
0
 40
1
 40
1
 40
1
 40
1
 10
866.023236
 20
-29.001353
 30
0.0
 10
864.834086
 20
-30.819413
 30
0.0
 10
864.289604
 20
-33.008305
 30
0.0
 10
864.342467
 20
-35.342425
 30
0.0
  0
LINE
  5
351
100
AcDbEntity
  8
Calque_1
 62
1
100
AcDbLine
 10
864.342467
 20
-35.342425
 30
0.0
 11
864.342467
 21
-35.342425
 31
0.0
  0
SPLINE
  5
352
100
AcDbEntity
  8
Calque_1
 62
1
100
AcDbSpline
 70
8
 71
3
 72
8
 73
4
 74
0
 40
0
 40
0
 40
0
 40
0
 40
1
 40
1
 40
1
 40
1
 10
907.235331
 20
-39.436405
 30
0.0
 10
907.588370
 20
-40.798502
 30
0.0
 10
909.121764
 20
-41.618130
 30
0.0
 10
910.600079
 20
-41.234997
 30
0.0
  0
SPLINE
  5
353
100
AcDbEntity
  8
Calque_1
 62
1
100
AcDbSpline
 70
8
 71
3
 72
8
 73
4
 74
0
 40
0
 40
0
 40
0
 40
0
 40
1
 40
1
 40
1
 40
1
 10
910.600079
 20
-41.234997
 30
0.0
 10
912.078439
 20
-40.851818
 30
0.0
 10
913.020571
 20
-39.390528
 30
0.0
 10
912.667509
 20
-38.028408
 30
0.0
  0
SPLINE
  5
354
100
AcDbEntity
  8
Calque_1
 62
1
100
AcDbSpline
 70
8
 71
3
 72
8
 73
4
 74
0
 40
0
 40
0
 40
0
 40
0
 40
1
 40
1
 40
1
 40
1
 10
912.667509
 20
-38.028408
 30
0.0
 10
912.314470
 20
-36.666288
 30
0.0
 10
910.781121
 20
-35.846615
 30
0.0
 10
909.302783
 20
-36.229794
 30
0.0
  0
SPLINE
  5
355
100
AcDbEntity
  8
Calque_1
 62
1
100
AcDbSpline
 70
8
 71
3
 72
8
 73
4
 74
0
 40
0
 40
0
 40
0
 40
0
 40
1
 40
1
 40
1
 40
1
 10
909.302783
 20
-36.229794
 30
0.0
 10
907.824446
 20
-36.612996
 30
0.0
 10
906.882269
 20
-38.074308
 30
0.0
 10
907.235331
 20
-39.436405
 30
0.0
  0
LINE
  5
356
100
AcDbEntity
  8
Calque_1
 62
1
100
AcDbLine
 10
907.235331
 20
-39.436405
 30
0.0
 11
907.235331
 21
-39.436405
 31
0.0
  0
SPLINE
  5
357
100
AcDbEntity
  8
Calque_1
 62
7
100
AcDbSpline
 70
8
 71
3
 72
8
 73
4
 74
0
 40
0
 40
0
 40
0
 40
0
 40
1
 40
1
 40
1
 40
1
 10
857.370227
 20
-62.937922
 30
0.0
 10
857.382077
 20
-63.548138
 30
0.0
 10
857.762441
 20
-64.090343
 30
0.0
 10
858.332186
 20
-64.309189
 30
0.0
  0
SPLINE
  5
358
100
AcDbEntity
  8
Calque_1
 62
7
100
AcDbSpline
 70
8
 71
3
 72
8
 73
4
 74
0
 40
0
 40
0
 40
0
 40
0
 40
1
 40
1
 40
1
 40
1
 10
858.332186
 20
-64.309189
 30
0.0
 10
858.901932
 20
-64.528035
 30
0.0
 10
859.547468
 20
-64.379889
 30
0.0
 10
859.964780
 20
-63.934519
 30
0.0
  0
SPLINE
  5
359
100
AcDbEntity
  8
Calque_1
 62
7
100
AcDbSpline
 70
8
 71
3
 72
8
 73
4
 74
0
 40
0
 40
0
 40
0
 40
0
 40
1
 40
1
 40
1
 40
1
 10
859.964780
 20
-63.934519
 30
0.0
 10
859.964780
 20
-63.934519
 30
0.0
 10
868.086402
 20
-55.506438
 30
0.0
 10
868.086402
 20
-55.506438
 30
0.0
  0
SPLINE
  5
35a
100
AcDbEntity
  8
Calque_1
 62
7
100
AcDbSpline
 70
8
 71
3
 72
8
 73
4
 74
0
 40
0
 40
0
 40
0
 40
0
 40
1
 40
1
 40
1
 40
1
 10
868.086402
 20
-55.506438
 30
0.0
 10
868.470056
 20
-55.122760
 30
0.0
 10
868.616630
 20
-54.561819
 30
0.0
 10
868.469711
 20
-54.039502
 30
0.0
  0
SPLINE
  5
35b
100
AcDbEntity
  8
Calque_1
 62
7
100
AcDbSpline
 70
8
 71
3
 72
8
 73
4
 74
0
 40
0
 40
0
 40
0
 40
0
 40
1
 40
1
 40
1
 40
1
 10
868.469711
 20
-54.039502
 30
0.0
 10
868.322793
 20
-53.517186
 30
0.0
 10
867.905284
 20
-53.114911
 30
0.0
 10
867.377869
 20
-52.987501
 30
0.0
  0
SPLINE
  5
35c
100
AcDbEntity
  8
Calque_1
 62
7
100
AcDbSpline
 70
8
 71
3
 72
8
 73
4
 74
0
 40
0
 40
0
 40
0
 40
0
 40
1
 40
1
 40
1
 40
1
 10
867.377869
 20
-52.987501
 30
0.0
 10
866.850455
 20
-52.860091
 30
0.0
 10
866.295347
 20
-53.027405
 30
0.0
 10
865.926188
 20
-53.425049
 30
0.0
  0
SPLINE
  5
35d
100
AcDbEntity
  8
Calque_1
 62
7
100
AcDbSpline
 70
8
 71
3
 72
8
 73
4
 74
0
 40
0
 40
0
 40
0
 40
0
 40
1
 40
1
 40
1
 40
1
 10
865.926188
 20
-53.425049
 30
0.0
 10
865.926188
 20
-53.425049
 30
0.0
 10
857.804567
 20
-61.853130
 30
0.0
 10
857.804567
 20
-61.853130
 30
0.0
  0
SPLINE
  5
35e
100
AcDbEntity
  8
Calque_1
 62
7
100
AcDbSpline
 70
8
 71
3
 72
8
 73
4
 74
0
 40
0
 40
0
 40
0
 40
0
 40
1
 40
1
 40
1
 40
1
 10
857.804567
 20
-61.853130
 30
0.0
 10
857.519119
 20
-62.141161
 30
0.0
 10
857.362438
 20
-62.532483
 30
0.0
 10
857.370227
 20
-62.937922
 30
0.0
  0
LINE
  5
35f
100
AcDbEntity
  8
Calque_1
 62
7
100
AcDbLine
 10
857.370227
 20
-62.937922
 30
0.0
 11
857.370227
 21
-62.937922
 31
0.0
  0
SPLINE
  5
360
100
AcDbEntity
  8
Calque_1
 62
7
100
AcDbSpline
 70
8
 71
3
 72
8
 73
4
 74
0
 40
0
 40
0
 40
0
 40
0
 40
1
 40
1
 40
1
 40
1
 10
848.814801
 20
-53.141173
 30
0.0
 10
848.799896
 20
-53.670542
 30
0.0
 10
849.065206
 20
-54.168548
 30
0.0
 10
849.512865
 20
-54.451489
 30
0.0
  0
SPLINE
  5
361
100
AcDbEntity
  8
Calque_1
 62
7
100
AcDbSpline
 70
8
 71
3
 72
8
 73
4
 74
0
 40
0
 40
0
 40
0
 40
0
 40
1
 40
1
 40
1
 40
1
 10
849.512865
 20
-54.451489
 30
0.0
 10
849.960523
 20
-54.734429
 30
0.0
 10
850.524196
 20
-54.760377
 30
0.0
 10
850.995956
 20
-54.519761
 30
0.0
  0
SPLINE
  5
362
100
AcDbEntity
  8
Calque_1
 62
7
100
AcDbSpline
 70
8
 71
3
 72
8
 73
4
 74
0
 40
0
 40
0
 40
0
 40
0
 40
1
 40
1
 40
1
 40
1
 10
850.995956
 20
-54.519761
 30
0.0
 10
850.995956
 20
-54.519761
 30
0.0
 10
863.412096
 20
-48.412297
 30
0.0
 10
863.412096
 20
-48.412297
 30
0.0
  0
SPLINE
  5
363
100
AcDbEntity
  8
Calque_1
 62
7
100
AcDbSpline
 70
8
 71
3
 72
8
 73
4
 74
0
 40
0
 40
0
 40
0
 40
0
 40
1
 40
1
 40
1
 40
1
 10
863.412096
 20
-48.412297
 30
0.0
 10
863.899424
 20
-48.179540
 30
0.0
 10
864.224029
 20
-47.702802
 30
0.0
 10
864.261994
 20
-47.164079
 30
0.0
  0
SPLINE
  5
364
100
AcDbEntity
  8
Calque_1
 62
7
100
AcDbSpline
 70
8
 71
3
 72
8
 73
4
 74
0
 40
0
 40
0
 40
0
 40
0
 40
1
 40
1
 40
1
 40
1
 10
864.261994
 20
-47.164079
 30
0.0
 10
864.299959
 20
-46.625355
 30
0.0
 10
864.045423
 20
-46.107805
 30
0.0
 10
863.595555
 20
-45.809002
 30
0.0
  0
SPLINE
  5
365
100
AcDbEntity
  8
Calque_1
 62
7
100
AcDbSpline
 70
8
 71
3
 72
8
 73
4
 74
0
 40
0
 40
0
 40
0
 40
0
 40
1
 40
1
 40
1
 40
1
 10
863.595555
 20
-45.809002
 30
0.0
 10
863.145686
 20
-45.510199
 30
0.0
 10
862.569930
 20
-45.476268
 30
0.0
 10
862.088079
 20
-45.720162
 30
0.0
  0
LINE
  5
366
100
AcDbEntity
  8
Calque_1
 62
7
100
AcDbLine
 10
862.088079
 20
-45.720162
 30
0.0
 11
849.671402
 21
-51.827626
 31
0.0
  0
SPLINE
  5
367
100
AcDbEntity
  8
Calque_1
 62
7
100
AcDbSpline
 70
8
 71
3
 72
8
 73
4
 74
0
 40
0
 40
0
 40
0
 40
0
 40
1
 40
1
 40
1
 40
1
 10
849.671402
 20
-51.827626
 30
0.0
 10
849.161529
 20
-52.069501
 30
0.0
 10
848.830537
 20
-52.577058
 30
0.0
 10
848.814801
 20
-53.141173
 30
0.0
  0
LINE
  5
368
100
AcDbEntity
  8
Calque_1
 62
7
100
AcDbLine
 10
848.814801
 20
-53.141173
 30
0.0
 11
848.814801
 21
-53.141173
 31
0.0
  0
SPLINE
  5
369
100
AcDbEntity
  8
Calque_1
 62
7
100
AcDbSpline
 70
8
 71
3
 72
8
 73
4
 74
0
 40
0
 40
0
 40
0
 40
0
 40
1
 40
1
 40
1
 40
1
 10
843.562279
 20
-38.099609
 30
0.0
 10
843.545141
 20
-38.522875
 30
0.0
 10
843.707754
 20
-38.933656
 30
0.0
 10
844.009959
 20
-39.230505
 30
0.0
  0
SPLINE
  5
36a
100
AcDbEntity
  8
Calque_1
 62
7
100
AcDbSpline
 70
8
 71
3
 72
8
 73
4
 74
0
 40
0
 40
0
 40
0
 40
0
 40
1
 40
1
 40
1
 40
1
 10
844.009959
 20
-39.230505
 30
0.0
 10
844.312164
 20
-39.527355
 30
0.0
 10
844.725787
 20
-39.682598
 30
0.0
 10
845.148678
 20
-39.657896
 30
0.0
  0
SPLINE
  5
36b
100
AcDbEntity
  8
Calque_1
 62
7
100
AcDbSpline
 70
8
 71
3
 72
8
 73
4
 74
0
 40
0
 40
0
 40
0
 40
0
 40
1
 40
1
 40
1
 40
1
 10
845.148678
 20
-39.657896
 30
0.0
 10
845.148678
 20
-39.657896
 30
0.0
 10
860.310390
 20
-38.984861
 30
0.0
 10
860.310390
 20
-38.984861
 30
0.0
  0
SPLINE
  5
36c
100
AcDbEntity
  8
Calque_1
 62
7
100
AcDbSpline
 70
8
 71
3
 72
8
 73
4
 74
0
 40
0
 40
0
 40
0
 40
0
 40
1
 40
1
 40
1
 40
1
 10
860.310390
 20
-38.984861
 30
0.0
 10
860.851968
 20
-38.969710
 30
0.0
 10
861.343297
 20
-38.663714
 30
0.0
 10
861.595761
 20
-38.184342
 30
0.0
  0
SPLINE
  5
36d
100
AcDbEntity
  8
Calque_1
 62
7
100
AcDbSpline
 70
8
 71
3
 72
8
 73
4
 74
0
 40
0
 40
0
 40
0
 40
0
 40
1
 40
1
 40
1
 40
1
 10
861.595761
 20
-38.184342
 30
0.0
 10
861.848226
 20
-37.704969
 30
0.0
 10
861.822595
 20
-37.126713
 30
0.0
 10
861.528706
 20
-36.671558
 30
0.0
  0
SPLINE
  5
36e
100
AcDbEntity
  8
Calque_1
 62
7
100
AcDbSpline
 70
8
 71
3
 72
8
 73
4
 74
0
 40
0
 40
0
 40
0
 40
0
 40
1
 40
1
 40
1
 40
1
 10
861.528706
 20
-36.671558
 30
0.0
 10
861.234818
 20
-36.216402
 30
0.0
 10
860.718342
 20
-35.955078
 30
0.0
 10
860.177548
 20
-35.987904
 30
0.0
  0
LINE
  5
36f
100
AcDbEntity
  8
Calque_1
 62
7
100
AcDbLine
 10
860.177548
 20
-35.987904
 30
0.0
 11
845.015836
 21
-36.660939
 31
0.0
  0
SPLINE
  5
370
100
AcDbEntity
  8
Calque_1
 62
7
100
AcDbSpline
 70
8
 71
3
 72
8
 73
4
 74
0
 40
0
 40
0
 40
0
 40
0
 40
1
 40
1
 40
1
 40
1
 10
845.015836
 20
-36.660939
 30
0.0
 10
844.228854
 20
-36.684746
 30
0.0
 10
843.594186
 20
-37.312914
 30
0.0
 10
843.562279
 20
-38.099609
 30
0.0
  0
LINE
  5
371
100
AcDbEntity
  8
Calque_1
 62
7
100
AcDbLine
 10
843.562279
 20
-38.099609
 30
0.0
 11
843.562279
 21
-38.099609
 31
0.0
  0
SPLINE
  5
372
100
AcDbEntity
  8
Calque_1
 62
7
100
AcDbSpline
 70
8
 71
3
 72
8
 73
4
 74
0
 40
0
 40
0
 40
0
 40
0
 40
1
 40
1
 40
1
 40
1
 10
849.334062
 20
-23.568472
 30
0.0
 10
849.319203
 20
-24.116543
 30
0.0
 10
849.604522
 20
-24.629065
 30
0.0
 10
850.078197
 20
-24.905170
 30
0.0
  0
SPLINE
  5
373
100
AcDbEntity
  8
Calque_1
 62
7
100
AcDbSpline
 70
8
 71
3
 72
8
 73
4
 74
0
 40
0
 40
0
 40
0
 40
0
 40
1
 40
1
 40
1
 40
1
 10
850.078197
 20
-24.905170
 30
0.0
 10
850.078197
 20
-24.905170
 30
0.0
 10
852.229916
 20
-26.200234
 30
0.0
 10
854.517129
 20
-27.568092
 30
0.0
  0
SPLINE
  5
374
100
AcDbEntity
  8
Calque_1
 62
7
100
AcDbSpline
 70
8
 71
3
 72
8
 73
4
 74
0
 40
0
 40
0
 40
0
 40
0
 40
1
 40
1
 40
1
 40
1
 10
854.517129
 20
-27.568092
 30
0.0
 10
856.804343
 20
-28.935947
 30
0.0
 10
859.099882
 20
-30.309869
 30
0.0
 10
859.820932
 20
-30.695687
 30
0.0
  0
SPLINE
  5
375
100
AcDbEntity
  8
Calque_1
 62
7
100
AcDbSpline
 70
8
 71
3
 72
8
 73
4
 74
0
 40
0
 40
0
 40
0
 40
0
 40
1
 40
1
 40
1
 40
1
 10
859.820932
 20
-30.695687
 30
0.0
 10
860.294533
 20
-30.961329
 30
0.0
 10
860.874715
 20
-30.950299
 30
0.0
 10
861.337877
 20
-30.666847
 30
0.0
  0
SPLINE
  5
376
100
AcDbEntity
  8
Calque_1
 62
7
100
AcDbSpline
 70
8
 71
3
 72
8
 73
4
 74
0
 40
0
 40
0
 40
0
 40
0
 40
1
 40
1
 40
1
 40
1
 10
861.337877
 20
-30.666847
 30
0.0
 10
861.801039
 20
-30.383396
 30
0.0
 10
862.074867
 20
-29.871779
 30
0.0
 10
862.053827
 20
-29.329173
 30
0.0
  0
SPLINE
  5
377
100
AcDbEntity
  8
Calque_1
 62
7
100
AcDbSpline
 70
8
 71
3
 72
8
 73
4
 74
0
 40
0
 40
0
 40
0
 40
0
 40
1
 40
1
 40
1
 40
1
 10
862.053827
 20
-29.329173
 30
0.0
 10
862.032788
 20
-28.786567
 30
0.0
 10
861.720166
 20
-28.297690
 30
0.0
 10
861.236445
 20
-28.050954
 30
0.0
  0
SPLINE
  5
378
100
AcDbEntity
  8
Calque_1
 62
7
100
AcDbSpline
 70
8
 71
3
 72
8
 73
4
 74
0
 40
0
 40
0
 40
0
 40
0
 40
1
 40
1
 40
1
 40
1
 10
861.236445
 20
-28.050954
 30
0.0
 10
860.882256
 20
-27.861434
 30
0.0
 10
858.339208
 20
-26.358420
 30
0.0
 10
856.056680
 20
-24.993364
 30
0.0
  0
SPLINE
  5
379
100
AcDbEntity
  8
Calque_1
 62
7
100
AcDbSpline
 70
8
 71
3
 72
8
 73
4
 74
0
 40
0
 40
0
 40
0
 40
0
 40
1
 40
1
 40
1
 40
1
 10
856.056680
 20
-24.993364
 30
0.0
 10
853.774151
 20
-23.628309
 30
0.0
 10
851.625452
 20
-22.334854
 30
0.0
 10
851.625452
 20
-22.334854
 30
0.0
  0
SPLINE
  5
37a
100
AcDbEntity
  8
Calque_1
 62
7
100
AcDbSpline
 70
8
 71
3
 72
8
 73
4
 74
0
 40
0
 40
0
 40
0
 40
0
 40
1
 40
1
 40
1
 40
1
 10
851.625452
 20
-22.334854
 30
0.0
 10
851.169009
 20
-22.051214
 30
0.0
 10
850.595713
 20
-22.033394
 30
0.0
 10
850.122535
 20
-22.288140
 30
0.0
  0
SPLINE
  5
37b
100
AcDbEntity
  8
Calque_1
 62
7
100
AcDbSpline
 70
8
 71
3
 72
8
 73
4
 74
0
 40
0
 40
0
 40
0
 40
0
 40
1
 40
1
 40
1
 40
1
 10
850.122535
 20
-22.288140
 30
0.0
 10
849.649358
 20
-22.542885
 30
0.0
 10
849.348590
 20
-23.031275
 30
0.0
 10
849.334062
 20
-23.568472
 30
0.0
  0
LINE
  5
37c
100
AcDbEntity
  8
Calque_1
 62
7
100
AcDbLine
 10
849.334062
 20
-23.568472
 30
0.0
 11
849.334062
 21
-23.568472
 31
0.0
  0
SPLINE
  5
37d
100
AcDbEntity
  8
Calque_1
 62
7
100
AcDbSpline
 70
8
 71
3
 72
8
 73
4
 74
0
 40
0
 40
0
 40
0
 40
0
 40
1
 40
1
 40
1
 40
1
 10
860.750261
 20
-15.128814
 30
0.0
 10
860.729561
 20
-15.570328
 30
0.0
 10
860.904620
 20
-15.998501
 30
0.0
 10
861.228712
 20
-16.299046
 30
0.0
  0
SPLINE
  5
37e
100
AcDbEntity
  8
Calque_1
 62
7
100
AcDbSpline
 70
8
 71
3
 72
8
 73
4
 74
0
 40
0
 40
0
 40
0
 40
0
 40
1
 40
1
 40
1
 40
1
 10
861.228712
 20
-16.299046
 30
0.0
 10
861.228712
 20
-16.299046
 30
0.0
 10
866.388666
 20
-21.223604
 30
0.0
 10
866.388666
 20
-21.223604
 30
0.0
  0
SPLINE
  5
37f
100
AcDbEntity
  8
Calque_1
 62
7
100
AcDbSpline
 70
8
 71
3
 72
8
 73
4
 74
0
 40
0
 40
0
 40
0
 40
0
 40
1
 40
1
 40
1
 40
1
 10
866.388666
 20
-21.223604
 30
0.0
 10
866.988085
 20
-21.795620
 30
0.0
 10
867.937720
 20
-21.773406
 30
0.0
 10
868.509737
 20
-21.173988
 30
0.0
  0
SPLINE
  5
380
100
AcDbEntity
  8
Calque_1
 62
7
100
AcDbSpline
 70
8
 71
3
 72
8
 73
4
 74
0
 40
0
 40
0
 40
0
 40
0
 40
1
 40
1
 40
1
 40
1
 10
868.509737
 20
-21.173988
 30
0.0
 10
869.081753
 20
-20.574569
 30
0.0
 10
869.059539
 20
-19.624933
 30
0.0
 10
868.460121
 20
-19.052917
 30
0.0
  0
SPLINE
  5
381
100
AcDbEntity
  8
Calque_1
 62
7
100
AcDbSpline
 70
8
 71
3
 72
8
 73
4
 74
0
 40
0
 40
0
 40
0
 40
0
 40
1
 40
1
 40
1
 40
1
 10
868.460121
 20
-19.052917
 30
0.0
 10
868.460121
 20
-19.052917
 30
0.0
 10
863.299631
 20
-14.128912
 30
0.0
 10
863.299631
 20
-14.128912
 30
0.0
  0
SPLINE
  5
382
100
AcDbEntity
  8
Calque_1
 62
7
100
AcDbSpline
 70
8
 71
3
 72
8
 73
4
 74
0
 40
0
 40
0
 40
0
 40
0
 40
1
 40
1
 40
1
 40
1
 10
863.299631
 20
-14.128912
 30
0.0
 10
862.877595
 20
-13.714631
 30
0.0
 10
862.251547
 20
-13.586960
 30
0.0
 10
861.700989
 20
-13.802897
 30
0.0
  0
SPLINE
  5
383
100
AcDbEntity
  8
Calque_1
 62
7
100
AcDbSpline
 70
8
 71
3
 72
8
 73
4
 74
0
 40
0
 40
0
 40
0
 40
0
 40
1
 40
1
 40
1
 40
1
 10
861.700989
 20
-13.802897
 30
0.0
 10
861.150431
 20
-14.018835
 30
0.0
 10
860.778115
 20
-14.538080
 30
0.0
 10
860.750261
 20
-15.128814
 30
0.0
  0
LINE
  5
384
100
AcDbEntity
  8
Calque_1
 62
7
100
AcDbLine
 10
860.750261
 20
-15.128814
 30
0.0
 11
860.750261
 21
-15.128814
 31
0.0
  0
SPLINE
  5
385
100
AcDbEntity
  8
Calque_1
 62
1
100
AcDbSpline
 70
8
 71
3
 72
8
 73
4
 74
0
 40
0
 40
0
 40
0
 40
0
 40
1
 40
1
 40
1
 40
1
 10
891.811949
 20
-127.411958
 30
0.0
 10
891.821263
 20
-127.482966
 30
0.0
 10
891.848949
 20
-127.554396
 30
0.0
 10
891.891875
 20
-127.634604
 30
0.0
  0
SPLINE
  5
386
100
AcDbEntity
  8
Calque_1
 62
1
100
AcDbSpline
 70
8
 71
3
 72
8
 73
4
 74
0
 40
0
 40
0
 40
0
 40
0
 40
1
 40
1
 40
1
 40
1
 10
891.891875
 20
-127.634604
 30
0.0
 10
892.034030
 20
-127.900231
 30
0.0
 10
892.229497
 20
-127.989639
 30
0.0
 10
892.522811
 20
-127.923317
 30
0.0
  0
SPLINE
  5
387
100
AcDbEntity
  8
Calque_1
 62
1
100
AcDbSpline
 70
8
 71
3
 72
8
 73
4
 74
0
 40
0
 40
0
 40
0
 40
0
 40
1
 40
1
 40
1
 40
1
 10
892.522811
 20
-127.923317
 30
0.0
 10
892.756519
 20
-127.870457
 30
0.0
 10
893.798427
 20
-127.744727
 30
0.0
 10
894.838021
 20
-127.643889
 30
0.0
  0
SPLINE
  5
388
100
AcDbEntity
  8
Calque_1
 62
1
100
AcDbSpline
 70
8
 71
3
 72
8
 73
4
 74
0
 40
0
 40
0
 40
0
 40
0
 40
1
 40
1
 40
1
 40
1
 10
894.838021
 20
-127.643889
 30
0.0
 10
895.877614
 20
-127.543079
 30
0.0
 10
896.851055
 20
-127.358731
 30
0.0
 10
897.001198
 20
-127.234102
 30
0.0
  0
SPLINE
  5
389
100
AcDbEntity
  8
Calque_1
 62
1
100
AcDbSpline
 70
8
 71
3
 72
8
 73
4
 74
0
 40
0
 40
0
 40
0
 40
0
 40
1
 40
1
 40
1
 40
1
 10
897.001198
 20
-127.234102
 30
0.0
 10
897.413044
 20
-126.892303
 30
0.0
 10
897.330382
 20
-125.978721
 30
0.0
 10
896.841657
 20
-125.471709
 30
0.0
  0
SPLINE
  5
38a
100
AcDbEntity
  8
Calque_1
 62
1
100
AcDbSpline
 70
8
 71
3
 72
8
 73
4
 74
0
 40
0
 40
0
 40
0
 40
0
 40
1
 40
1
 40
1
 40
1
 10
896.841657
 20
-125.471709
 30
0.0
 10
896.484505
 20
-125.101179
 30
0.0
 10
896.236037
 20
-125.030313
 30
0.0
 10
895.418185
 20
-125.064011
 30
0.0
  0
SPLINE
  5
38b
100
AcDbEntity
  8
Calque_1
 62
1
100
AcDbSpline
 70
8
 71
3
 72
8
 73
4
 74
0
 40
0
 40
0
 40
0
 40
0
 40
1
 40
1
 40
1
 40
1
 10
895.418185
 20
-125.064011
 30
0.0
 10
894.222184
 20
-125.113315
 30
0.0
 10
893.165431
 20
-125.621512
 30
0.0
 10
892.316986
 20
-126.555414
 30
0.0
  0
SPLINE
  5
38c
100
AcDbEntity
  8
Calque_1
 62
1
100
AcDbSpline
 70
8
 71
3
 72
8
 73
4
 74
0
 40
0
 40
0
 40
0
 40
0
 40
1
 40
1
 40
1
 40
1
 10
892.316986
 20
-126.555414
 30
0.0
 10
891.922580
 20
-126.989556
 30
0.0
 10
891.784066
 20
-127.198965
 30
0.0
 10
891.811949
 20
-127.411958
 30
0.0
  0
LINE
  5
38d
100
AcDbEntity
  8
Calque_1
 62
1
100
AcDbLine
 10
891.811949
 20
-127.411958
 30
0.0
 11
891.811949
 21
-127.411958
 31
0.0
  0
SPLINE
  5
38e
100
AcDbEntity
  8
Calque_1
 62
1
100
AcDbSpline
 70
8
 71
3
 72
8
 73
4
 74
0
 40
0
 40
0
 40
0
 40
0
 40
1
 40
1
 40
1
 40
1
 10
906.789285
 20
-121.637156
 30
0.0
 10
906.801985
 20
-122.303510
 30
0.0
 10
907.130774
 20
-122.816393
 30
0.0
 10
908.063462
 20
-122.755997
 30
0.0
  0
SPLINE
  5
38f
100
AcDbEntity
  8
Calque_1
 62
1
100
AcDbSpline
 70
8
 71
3
 72
8
 73
4
 74
0
 40
0
 40
0
 40
0
 40
0
 40
1
 40
1
 40
1
 40
1
 10
908.063462
 20
-122.755997
 30
0.0
 10
910.053185
 20
-122.627163
 30
0.0
 10
912.093087
 20
-122.517943
 30
0.0
 10
914.604978
 20
-122.386173
 30
0.0
  0
SPLINE
  5
390
100
AcDbEntity
  8
Calque_1
 62
1
100
AcDbSpline
 70
8
 71
3
 72
8
 73
4
 74
0
 40
0
 40
0
 40
0
 40
0
 40
1
 40
1
 40
1
 40
1
 10
914.604978
 20
-122.386173
 30
0.0
 10
915.031613
 20
-122.213256
 30
0.0
 10
914.913616
 20
-120.963660
 30
0.0
 10
914.749194
 20
-119.676755
 30
0.0
  0
SPLINE
  5
391
100
AcDbEntity
  8
Calque_1
 62
1
100
AcDbSpline
 70
8
 71
3
 72
8
 73
4
 74
0
 40
0
 40
0
 40
0
 40
0
 40
1
 40
1
 40
1
 40
1
 10
914.749194
 20
-119.676755
 30
0.0
 10
914.584799
 20
-118.389878
 30
0.0
 10
914.242125
 20
-119.353808
 30
0.0
 10
911.084707
 20
-119.371814
 30
0.0
  0
LINE
  5
392
100
AcDbEntity
  8
Calque_1
 62
1
100
AcDbLine
 10
911.084707
 20
-119.371814
 30
0.0
 11
907.544596
 21
-119.391852
 31
0.0
  0
SPLINE
  5
393
100
AcDbEntity
  8
Calque_1
 62
1
100
AcDbSpline
 70
8
 71
3
 72
8
 73
4
 74
0
 40
0
 40
0
 40
0
 40
0
 40
1
 40
1
 40
1
 40
1
 10
907.544596
 20
-119.391852
 30
0.0
 10
907.166024
 20
-119.929598
 30
0.0
 10
906.774807
 20
-120.881872
 30
0.0
 10
906.789285
 20
-121.637071
 30
0.0
  0
LINE
  5
394
100
AcDbEntity
  8
Calque_1
 62
1
100
AcDbLine
 10
906.789285
 20
-121.637071
 30
0.0
 11
906.789285
 21
-121.637156
 31
0.0
  0
SPLINE
  5
395
100
AcDbEntity
  8
Calque_1
 62
1
100
AcDbSpline
 70
8
 71
3
 72
8
 73
4
 74
0
 40
0
 40
0
 40
0
 40
0
 40
1
 40
1
 40
1
 40
1
 10
889.986677
 20
-138.079592
 30
0.0
 10
889.989499
 20
-138.116817
 30
0.0
 10
889.994015
 20
-138.156158
 30
0.0
 10
890.001917
 20
-138.198548
 30
0.0
  0
SPLINE
  5
396
100
AcDbEntity
  8
Calque_1
 62
1
100
AcDbSpline
 70
8
 71
3
 72
8
 73
4
 74
0
 40
0
 40
0
 40
0
 40
0
 40
1
 40
1
 40
1
 40
1
 10
890.001917
 20
-138.198548
 30
0.0
 10
890.132134
 20
-138.877039
 30
0.0
 10
897.684232
 20
-140.713713
 30
0.0
 10
899.418374
 20
-138.536566
 30
0.0
  0
SPLINE
  5
397
100
AcDbEntity
  8
Calque_1
 62
1
100
AcDbSpline
 70
8
 71
3
 72
8
 73
4
 74
0
 40
0
 40
0
 40
0
 40
0
 40
1
 40
1
 40
1
 40
1
 10
899.418374
 20
-138.536566
 30
0.0
 10
900.376434
 20
-136.981408
 30
0.0
 10
899.870128
 20
-135.146089
 30
0.0
 10
898.801578
 20
-133.505362
 30
0.0
  0
SPLINE
  5
398
100
AcDbEntity
  8
Calque_1
 62
1
100
AcDbSpline
 70
8
 71
3
 72
8
 73
4
 74
0
 40
0
 40
0
 40
0
 40
0
 40
1
 40
1
 40
1
 40
1
 10
898.801578
 20
-133.505362
 30
0.0
 10
897.201350
 20
-131.768256
 30
0.0
 10
895.037439
 20
-130.342469
 30
0.0
 10
892.720310
 20
-129.213214
 30
0.0
  0
SPLINE
  5
399
100
AcDbEntity
  8
Calque_1
 62
1
100
AcDbSpline
 70
8
 71
3
 72
8
 73
4
 74
0
 40
0
 40
0
 40
0
 40
0
 40
1
 40
1
 40
1
 40
1
 10
892.720310
 20
-129.213214
 30
0.0
 10
892.563281
 20
-129.213214
 30
0.0
 10
892.529753
 20
-129.420788
 30
0.0
 10
892.614251
 20
-129.871186
 30
0.0
  0
SPLINE
  5
39a
100
AcDbEntity
  8
Calque_1
 62
1
100
AcDbSpline
 70
8
 71
3
 72
8
 73
4
 74
0
 40
0
 40
0
 40
0
 40
0
 40
1
 40
1
 40
1
 40
1
 10
892.614251
 20
-129.871186
 30
0.0
 10
892.710517
 20
-130.384238
 30
0.0
 10
892.659463
 20
-131.200707
 30
0.0
 10
892.382631
 20
-131.399843
 30
0.0
  0
SPLINE
  5
39b
100
AcDbEntity
  8
Calque_1
 62
1
100
AcDbSpline
 70
8
 71
3
 72
8
 73
4
 74
0
 40
0
 40
0
 40
0
 40
0
 40
1
 40
1
 40
1
 40
1
 10
892.382631
 20
-131.399843
 30
0.0
 10
892.115508
 20
-131.592008
 30
0.0
 10
891.957999
 20
-131.802038
 30
0.0
 10
891.903107
 20
-132.064420
 30
0.0
  0
SPLINE
  5
39c
100
AcDbEntity
  8
Calque_1
 62
1
100
AcDbSpline
 70
8
 71
3
 72
8
 73
4
 74
0
 40
0
 40
0
 40
0
 40
0
 40
1
 40
1
 40
1
 40
1
 10
891.903107
 20
-132.064420
 30
0.0
 10
891.848243
 20
-132.326830
 30
0.0
 10
891.896052
 20
-132.641677
 30
0.0
 10
892.038912
 20
-133.043872
 30
0.0
  0
SPLINE
  5
39d
100
AcDbEntity
  8
Calque_1
 62
1
100
AcDbSpline
 70
8
 71
3
 72
8
 73
4
 74
0
 40
0
 40
0
 40
0
 40
0
 40
1
 40
1
 40
1
 40
1
 10
892.038912
 20
-133.043872
 30
0.0
 10
892.647384
 20
-135.078977
 30
0.0
 10
890.627717
 20
-134.915457
 30
0.0
 10
890.592270
 20
-136.242381
 30
0.0
  0
SPLINE
  5
39e
100
AcDbEntity
  8
Calque_1
 62
1
100
AcDbSpline
 70
8
 71
3
 72
8
 73
4
 74
0
 40
0
 40
0
 40
0
 40
0
 40
1
 40
1
 40
1
 40
1
 10
890.592270
 20
-136.242381
 30
0.0
 10
890.559052
 20
-137.486389
 30
0.0
 10
889.954701
 20
-137.521074
 30
0.0
 10
889.986592
 20
-138.079592
 30
0.0
  0
LINE
  5
39f
100
AcDbEntity
  8
Calque_1
 62
1
100
AcDbLine
 10
889.986592
 20
-138.079592
 30
0.0
 11
889.986677
 21
-138.079592
 31
0.0
  0
SPLINE
  5
3a0
100
AcDbEntity
  8
Calque_1
 62
1
100
AcDbSpline
 70
8
 71
3
 72
8
 73
4
 74
0
 40
0
 40
0
 40
0
 40
0
 40
1
 40
1
 40
1
 40
1
 10
888.321961
 20
-98.794286
 30
0.0
 10
888.330992
 20
-99.469560
 30
0.0
 10
888.412470
 20
-99.801340
 30
0.0
 10
888.607401
 20
-100.107833
 30
0.0
  0
SPLINE
  5
3a1
100
AcDbEntity
  8
Calque_1
 62
1
100
AcDbSpline
 70
8
 71
3
 72
8
 73
4
 74
0
 40
0
 40
0
 40
0
 40
0
 40
1
 40
1
 40
1
 40
1
 10
888.607401
 20
-100.107833
 30
0.0
 10
889.052070
 20
-100.806954
 30
0.0
 10
889.224790
 20
-100.910219
 30
0.0
 10
889.956677
 20
-100.913606
 30
0.0
  0
SPLINE
  5
3a2
100
AcDbEntity
  8
Calque_1
 62
1
100
AcDbSpline
 70
8
 71
3
 72
8
 73
4
 74
0
 40
0
 40
0
 40
0
 40
0
 40
1
 40
1
 40
1
 40
1
 10
889.956677
 20
-100.913606
 30
0.0
 10
890.300395
 20
-100.916428
 30
0.0
 10
890.581602
 20
-100.999458
 30
0.0
 10
890.581602
 20
-101.101086
 30
0.0
  0
SPLINE
  5
3a3
100
AcDbEntity
  8
Calque_1
 62
1
100
AcDbSpline
 70
8
 71
3
 72
8
 73
4
 74
0
 40
0
 40
0
 40
0
 40
0
 40
1
 40
1
 40
1
 40
1
 10
890.581602
 20
-101.101086
 30
0.0
 10
890.581602
 20
-101.495887
 30
0.0
 10
891.445540
 20
-102.070012
 30
0.0
 10
892.039646
 20
-102.070012
 30
0.0
  0
SPLINE
  5
3a4
100
AcDbEntity
  8
Calque_1
 62
1
100
AcDbSpline
 70
8
 71
3
 72
8
 73
4
 74
0
 40
0
 40
0
 40
0
 40
0
 40
1
 40
1
 40
1
 40
1
 10
892.039646
 20
-102.070012
 30
0.0
 10
892.895937
 20
-102.070012
 30
0.0
 10
893.850412
 20
-101.164868
 30
0.0
 10
893.850412
 20
-100.352661
 30
0.0
  0
SPLINE
  5
3a5
100
AcDbEntity
  8
Calque_1
 62
1
100
AcDbSpline
 70
8
 71
3
 72
8
 73
4
 74
0
 40
0
 40
0
 40
0
 40
0
 40
1
 40
1
 40
1
 40
1
 10
893.850412
 20
-100.352661
 30
0.0
 10
893.850412
 20
-99.980918
 30
0.0
 10
893.966688
 20
-99.705892
 30
0.0
 10
894.154761
 20
-99.633700
 30
0.0
  0
SPLINE
  5
3a6
100
AcDbEntity
  8
Calque_1
 62
1
100
AcDbSpline
 70
8
 71
3
 72
8
 73
4
 74
0
 40
0
 40
0
 40
0
 40
0
 40
1
 40
1
 40
1
 40
1
 10
894.154761
 20
-99.633700
 30
0.0
 10
894.322260
 20
-99.569438
 30
0.0
 10
894.533249
 20
-99.334206
 30
0.0
 10
894.623475
 20
-99.110940
 30
0.0
  0
SPLINE
  5
3a7
100
AcDbEntity
  8
Calque_1
 62
1
100
AcDbSpline
 70
8
 71
3
 72
8
 73
4
 74
0
 40
0
 40
0
 40
0
 40
0
 40
1
 40
1
 40
1
 40
1
 10
894.623475
 20
-99.110940
 30
0.0
 10
894.899263
 20
-98.428329
 30
0.0
 10
894.830118
 20
-97.722914
 30
0.0
 10
894.438987
 20
-97.225667
 30
0.0
  0
SPLINE
  5
3a8
100
AcDbEntity
  8
Calque_1
 62
1
100
AcDbSpline
 70
8
 71
3
 72
8
 73
4
 74
0
 40
0
 40
0
 40
0
 40
0
 40
1
 40
1
 40
1
 40
1
 10
894.438987
 20
-97.225667
 30
0.0
 10
894.234009
 20
-96.965120
 30
0.0
 10
894.010658
 20
-96.530356
 30
0.0
 10
893.942671
 20
-96.259451
 30
0.0
  0
SPLINE
  5
3a9
100
AcDbEntity
  8
Calque_1
 62
1
100
AcDbSpline
 70
8
 71
3
 72
8
 73
4
 74
0
 40
0
 40
0
 40
0
 40
0
 40
1
 40
1
 40
1
 40
1
 10
893.942671
 20
-96.259451
 30
0.0
 10
893.797693
 20
-95.681855
 30
0.0
 10
892.977950
 20
-94.862508
 30
0.0
 10
892.357203
 20
-94.674914
 30
0.0
  0
SPLINE
  5
3aa
100
AcDbEntity
  8
Calque_1
 62
1
100
AcDbSpline
 70
8
 71
3
 72
8
 73
4
 74
0
 40
0
 40
0
 40
0
 40
0
 40
1
 40
1
 40
1
 40
1
 10
892.357203
 20
-94.674914
 30
0.0
 10
892.067163
 20
-94.587256
 30
0.0
 10
891.705015
 20
-94.677737
 30
0.0
 10
891.273215
 20
-94.944098
 30
0.0
  0
SPLINE
  5
3ab
100
AcDbEntity
  8
Calque_1
 62
1
100
AcDbSpline
 70
8
 71
3
 72
8
 73
4
 74
0
 40
0
 40
0
 40
0
 40
0
 40
1
 40
1
 40
1
 40
1
 10
891.273215
 20
-94.944098
 30
0.0
 10
890.915696
 20
-95.165078
 30
0.0
 10
890.484094
 20
-95.290780
 30
0.0
 10
890.311204
 20
-95.224429
 30
0.0
  0
SPLINE
  5
3ac
100
AcDbEntity
  8
Calque_1
 62
1
100
AcDbSpline
 70
8
 71
3
 72
8
 73
4
 74
0
 40
0
 40
0
 40
0
 40
0
 40
1
 40
1
 40
1
 40
1
 10
890.311204
 20
-95.224429
 30
0.0
 10
889.872603
 20
-95.056112
 30
0.0
 10
888.879548
 20
-95.505297
 30
0.0
 10
888.615500
 20
-95.991453
 30
0.0
  0
SPLINE
  5
3ad
100
AcDbEntity
  8
Calque_1
 62
1
100
AcDbSpline
 70
8
 71
3
 72
8
 73
4
 74
0
 40
0
 40
0
 40
0
 40
0
 40
1
 40
1
 40
1
 40
1
 10
888.615500
 20
-95.991453
 30
0.0
 10
888.494145
 20
-96.214888
 30
0.0
 10
888.368387
 20
-97.115516
 30
0.0
 10
888.335790
 20
-97.992719
 30
0.0
  0
SPLINE
  5
3ae
100
AcDbEntity
  8
Calque_1
 62
1
100
AcDbSpline
 70
8
 71
3
 72
8
 73
4
 74
0
 40
0
 40
0
 40
0
 40
0
 40
1
 40
1
 40
1
 40
1
 10
888.335790
 20
-97.992719
 30
0.0
 10
888.324219
 20
-98.305901
 30
0.0
 10
888.318857
 20
-98.569186
 30
0.0
 10
888.321961
 20
-98.794286
 30
0.0
  0
LINE
  5
3af
100
AcDbEntity
  8
Calque_1
 62
1
100
AcDbLine
 10
888.321961
 20
-98.794286
 30
0.0
 11
888.321961
 21
-98.794286
 31
0.0
  0
SPLINE
  5
3b0
100
AcDbEntity
  8
Calque_1
 62
1
100
AcDbSpline
 70
8
 71
3
 72
8
 73
4
 74
0
 40
0
 40
0
 40
0
 40
0
 40
1
 40
1
 40
1
 40
1
 10
887.299583
 20
-139.599471
 30
0.0
 10
887.302405
 20
-139.736123
 30
0.0
 10
887.314258
 20
-139.902239
 30
0.0
 10
887.335933
 20
-140.100895
 30
0.0
  0
SPLINE
  5
3b1
100
AcDbEntity
  8
Calque_1
 62
1
100
AcDbSpline
 70
8
 71
3
 72
8
 73
4
 74
0
 40
0
 40
0
 40
0
 40
0
 40
1
 40
1
 40
1
 40
1
 10
887.335933
 20
-140.100895
 30
0.0
 10
887.616631
 20
-142.676907
 30
0.0
 10
890.803598
 20
-144.783103
 30
0.0
 10
892.330194
 20
-143.401569
 30
0.0
  0
SPLINE
  5
3b2
100
AcDbEntity
  8
Calque_1
 62
1
100
AcDbSpline
 70
8
 71
3
 72
8
 73
4
 74
0
 40
0
 40
0
 40
0
 40
0
 40
1
 40
1
 40
1
 40
1
 10
892.330194
 20
-143.401569
 30
0.0
 10
892.798542
 20
-142.977728
 30
0.0
 10
892.759877
 20
-142.199697
 30
0.0
 10
892.239770
 20
-141.582110
 30
0.0
  0
SPLINE
  5
3b3
100
AcDbEntity
  8
Calque_1
 62
1
100
AcDbSpline
 70
8
 71
3
 72
8
 73
4
 74
0
 40
0
 40
0
 40
0
 40
0
 40
1
 40
1
 40
1
 40
1
 10
892.239770
 20
-141.582110
 30
0.0
 10
891.770858
 20
-141.025342
 30
0.0
 10
889.349306
 20
-139.601306
 30
0.0
 10
888.195497
 20
-139.203796
 30
0.0
  0
SPLINE
  5
3b4
100
AcDbEntity
  8
Calque_1
 62
1
100
AcDbSpline
 70
8
 71
3
 72
8
 73
4
 74
0
 40
0
 40
0
 40
0
 40
0
 40
1
 40
1
 40
1
 40
1
 10
888.195497
 20
-139.203796
 30
0.0
 10
887.504730
 20
-138.965798
 30
0.0
 10
887.292838
 20
-139.007284
 30
0.0
 10
887.299583
 20
-139.599471
 30
0.0
  0
LINE
  5
3b5
100
AcDbEntity
  8
Calque_1
 62
1
100
AcDbLine
 10
887.299583
 20
-139.599471
 30
0.0
 11
887.299583
 21
-139.599471
 31
0.0
  0
SPLINE
  5
3b6
100
AcDbEntity
  8
Calque_1
 62
1
100
AcDbSpline
 70
8
 71
3
 72
8
 73
4
 74
0
 40
0
 40
0
 40
0
 40
0
 40
1
 40
1
 40
1
 40
1
 10
882.781516
 20
-111.047754
 30
0.0
 10
882.778693
 20
-111.583356
 30
0.0
 10
882.856474
 20
-112.123811
 30
0.0
 10
882.973794
 20
-112.649704
 30
0.0
  0
SPLINE
  5
3b7
100
AcDbEntity
  8
Calque_1
 62
1
100
AcDbSpline
 70
8
 71
3
 72
8
 73
4
 74
0
 40
0
 40
0
 40
0
 40
0
 40
1
 40
1
 40
1
 40
1
 10
882.973794
 20
-112.649704
 30
0.0
 10
883.161500
 20
-113.491150
 30
0.0
 10
883.527062
 20
-114.333273
 30
0.0
 10
883.898269
 20
-114.724884
 30
0.0
  0
SPLINE
  5
3b8
100
AcDbEntity
  8
Calque_1
 62
1
100
AcDbSpline
 70
8
 71
3
 72
8
 73
4
 74
0
 40
0
 40
0
 40
0
 40
0
 40
1
 40
1
 40
1
 40
1
 10
883.898269
 20
-114.724884
 30
0.0
 10
883.401304
 20
-115.513046
 30
0.0
 10
883.093682
 20
-116.034254
 30
0.0
 10
882.992731
 20
-116.798230
 30
0.0
  0
SPLINE
  5
3b9
100
AcDbEntity
  8
Calque_1
 62
1
100
AcDbSpline
 70
8
 71
3
 72
8
 73
4
 74
0
 40
0
 40
0
 40
0
 40
0
 40
1
 40
1
 40
1
 40
1
 10
882.992731
 20
-116.798230
 30
0.0
 10
882.879926
 20
-117.651444
 30
0.0
 10
882.799437
 20
-118.799806
 30
0.0
 10
883.313900
 20
-119.563189
 30
0.0
  0
SPLINE
  5
3ba
100
AcDbEntity
  8
Calque_1
 62
1
100
AcDbSpline
 70
8
 71
3
 72
8
 73
4
 74
0
 40
0
 40
0
 40
0
 40
0
 40
1
 40
1
 40
1
 40
1
 10
883.313900
 20
-119.563189
 30
0.0
 10
883.548116
 20
-119.910746
 30
0.0
 10
883.881928
 20
-120.367184
 30
0.0
 10
884.416824
 20
-120.347964
 30
0.0
  0
SPLINE
  5
3bb
100
AcDbEntity
  8
Calque_1
 62
1
100
AcDbSpline
 70
8
 71
3
 72
8
 73
4
 74
0
 40
0
 40
0
 40
0
 40
0
 40
1
 40
1
 40
1
 40
1
 10
884.416824
 20
-120.347964
 30
0.0
 10
884.122918
 20
-120.835108
 30
0.0
 10
883.971110
 20
-121.282572
 30
0.0
 10
883.964055
 20
-122.013019
 30
0.0
  0
SPLINE
  5
3bc
100
AcDbEntity
  8
Calque_1
 62
1
100
AcDbSpline
 70
8
 71
3
 72
8
 73
4
 74
0
 40
0
 40
0
 40
0
 40
0
 40
1
 40
1
 40
1
 40
1
 10
883.964055
 20
-122.013019
 30
0.0
 10
883.956999
 20
-122.743467
 30
0.0
 10
884.608989
 20
-123.858442
 30
0.0
 10
885.091025
 20
-124.205039
 30
0.0
  0
SPLINE
  5
3bd
100
AcDbEntity
  8
Calque_1
 62
1
100
AcDbSpline
 70
8
 71
3
 72
8
 73
4
 74
0
 40
0
 40
0
 40
0
 40
0
 40
1
 40
1
 40
1
 40
1
 10
885.091025
 20
-124.205039
 30
0.0
 10
885.191044
 20
-124.276978
 30
0.0
 10
886.099574
 20
-124.306978
 30
0.0
 10
887.109986
 20
-124.271728
 30
0.0
  0
SPLINE
  5
3be
100
AcDbEntity
  8
Calque_1
 62
1
100
AcDbSpline
 70
8
 71
3
 72
8
 73
4
 74
0
 40
0
 40
0
 40
0
 40
0
 40
1
 40
1
 40
1
 40
1
 10
887.109986
 20
-124.271728
 30
0.0
 10
888.683262
 20
-124.216864
 30
0.0
 10
889.049643
 20
-124.264673
 30
0.0
 10
889.660456
 20
-124.604609
 30
0.0
  0
SPLINE
  5
3bf
100
AcDbEntity
  8
Calque_1
 62
1
100
AcDbSpline
 70
8
 71
3
 72
8
 73
4
 74
0
 40
0
 40
0
 40
0
 40
0
 40
1
 40
1
 40
1
 40
1
 10
889.660456
 20
-124.604609
 30
0.0
 10
890.973862
 20
-126.088308
 30
0.0
 10
892.571974
 20
-125.330090
 30
0.0
 10
894.167376
 20
-124.830246
 30
0.0
  0
SPLINE
  5
3c0
100
AcDbEntity
  8
Calque_1
 62
1
100
AcDbSpline
 70
8
 71
3
 72
8
 73
4
 74
0
 40
0
 40
0
 40
0
 40
0
 40
1
 40
1
 40
1
 40
1
 10
894.167376
 20
-124.830246
 30
0.0
 10
895.405062
 20
-124.442501
 30
0.0
 10
896.743726
 20
-124.360910
 30
0.0
 10
897.292902
 20
-124.641270
 30
0.0
  0
SPLINE
  5
3c1
100
AcDbEntity
  8
Calque_1
 62
1
100
AcDbSpline
 70
8
 71
3
 72
8
 73
4
 74
0
 40
0
 40
0
 40
0
 40
0
 40
1
 40
1
 40
1
 40
1
 10
897.292902
 20
-124.641270
 30
0.0
 10
898.076803
 20
-125.041518
 30
0.0
 10
898.612574
 20
-126.264753
 30
0.0
 10
898.214951
 20
-127.171590
 30
0.0
  0
SPLINE
  5
3c2
100
AcDbEntity
  8
Calque_1
 62
1
100
AcDbSpline
 70
8
 71
3
 72
8
 73
4
 74
0
 40
0
 40
0
 40
0
 40
0
 40
1
 40
1
 40
1
 40
1
 10
898.214951
 20
-127.171590
 30
0.0
 10
897.974949
 20
-127.718960
 30
0.0
 10
897.213796
 20
-127.935989
 30
0.0
 10
896.560423
 20
-128.053704
 30
0.0
  0
SPLINE
  5
3c3
100
AcDbEntity
  8
Calque_1
 62
1
100
AcDbSpline
 70
8
 71
3
 72
8
 73
4
 74
0
 40
0
 40
0
 40
0
 40
0
 40
1
 40
1
 40
1
 40
1
 10
896.560423
 20
-128.053704
 30
0.0
 10
895.907050
 20
-128.171418
 30
0.0
 10
895.829806
 20
-128.708064
 30
0.0
 10
895.820408
 20
-129.151520
 30
0.0
  0
SPLINE
  5
3c4
100
AcDbEntity
  8
Calque_1
 62
1
100
AcDbSpline
 70
8
 71
3
 72
8
 73
4
 74
0
 40
0
 40
0
 40
0
 40
0
 40
1
 40
1
 40
1
 40
1
 10
895.820408
 20
-129.151520
 30
0.0
 10
895.813635
 20
-129.480506
 30
0.0
 10
895.522156
 20
-129.721976
 30
0.0
 10
896.836803
 20
-130.541069
 30
0.0
  0
SPLINE
  5
3c5
100
AcDbEntity
  8
Calque_1
 62
1
100
AcDbSpline
 70
8
 71
3
 72
8
 73
4
 74
0
 40
0
 40
0
 40
0
 40
0
 40
1
 40
1
 40
1
 40
1
 10
896.836803
 20
-130.541069
 30
0.0
 10
898.633684
 20
-131.598640
 30
0.0
 10
899.444480
 20
-131.770965
 30
0.0
 10
900.666276
 20
-131.354659
 30
0.0
  0
SPLINE
  5
3c6
100
AcDbEntity
  8
Calque_1
 62
1
100
AcDbSpline
 70
8
 71
3
 72
8
 73
4
 74
0
 40
0
 40
0
 40
0
 40
0
 40
1
 40
1
 40
1
 40
1
 10
900.666276
 20
-131.354659
 30
0.0
 10
902.188357
 20
-130.792275
 30
0.0
 10
902.227925
 20
-129.315350
 30
0.0
 10
902.653375
 20
-128.046479
 30
0.0
  0
SPLINE
  5
3c7
100
AcDbEntity
  8
Calque_1
 62
1
100
AcDbSpline
 70
8
 71
3
 72
8
 73
4
 74
0
 40
0
 40
0
 40
0
 40
0
 40
1
 40
1
 40
1
 40
1
 10
902.653375
 20
-128.046479
 30
0.0
 10
904.439390
 20
-127.913157
 30
0.0
 10
905.718506
 20
-124.152715
 30
0.0
 10
904.847229
 20
-122.512948
 30
0.0
  0
SPLINE
  5
3c8
100
AcDbEntity
  8
Calque_1
 62
1
100
AcDbSpline
 70
8
 71
3
 72
8
 73
4
 74
0
 40
0
 40
0
 40
0
 40
0
 40
1
 40
1
 40
1
 40
1
 10
904.847229
 20
-122.512948
 30
0.0
 10
905.289076
 20
-122.238882
 30
0.0
 10
907.585124
 20
-119.114823
 30
0.0
 10
905.701064
 20
-115.519848
 30
0.0
  0
SPLINE
  5
3c9
100
AcDbEntity
  8
Calque_1
 62
1
100
AcDbSpline
 70
8
 71
3
 72
8
 73
4
 74
0
 40
0
 40
0
 40
0
 40
0
 40
1
 40
1
 40
1
 40
1
 10
905.701064
 20
-115.519848
 30
0.0
 10
906.434391
 20
-114.606436
 30
0.0
 10
907.217783
 20
-110.223073
 30
0.0
 10
904.983317
 20
-108.784530
 30
0.0
  0
SPLINE
  5
3ca
100
AcDbEntity
  8
Calque_1
 62
1
100
AcDbSpline
 70
8
 71
3
 72
8
 73
4
 74
0
 40
0
 40
0
 40
0
 40
0
 40
1
 40
1
 40
1
 40
1
 10
904.983317
 20
-108.784530
 30
0.0
 10
906.327118
 20
-107.515320
 30
0.0
 10
904.825357
 20
-102.530880
 30
0.0
 10
902.961336
 20
-102.825859
 30
0.0
  0
SPLINE
  5
3cb
100
AcDbEntity
  8
Calque_1
 62
1
100
AcDbSpline
 70
8
 71
3
 72
8
 73
4
 74
0
 40
0
 40
0
 40
0
 40
0
 40
1
 40
1
 40
1
 40
1
 10
902.961336
 20
-102.825859
 30
0.0
 10
902.679819
 20
-100.706455
 30
0.0
 10
900.790934
 20
-99.216999
 30
0.0
 10
898.362468
 20
-99.152934
 30
0.0
  0
SPLINE
  5
3cc
100
AcDbEntity
  8
Calque_1
 62
1
100
AcDbSpline
 70
8
 71
3
 72
8
 73
4
 74
0
 40
0
 40
0
 40
0
 40
0
 40
1
 40
1
 40
1
 40
1
 10
898.362468
 20
-99.152934
 30
0.0
 10
898.334528
 20
-98.433437
 30
0.0
 10
897.673536
 20
-98.026783
 30
0.0
 10
896.926945
 20
-97.663648
 30
0.0
  0
SPLINE
  5
3cd
100
AcDbEntity
  8
Calque_1
 62
1
100
AcDbSpline
 70
8
 71
3
 72
8
 73
4
 74
0
 40
0
 40
0
 40
0
 40
0
 40
1
 40
1
 40
1
 40
1
 10
896.926945
 20
-97.663648
 30
0.0
 10
895.852468
 20
-97.271980
 30
0.0
 10
896.164888
 20
-98.278864
 30
0.0
 10
895.668714
 20
-99.884793
 30
0.0
  0
SPLINE
  5
3ce
100
AcDbEntity
  8
Calque_1
 62
1
100
AcDbSpline
 70
8
 71
3
 72
8
 73
4
 74
0
 40
0
 40
0
 40
0
 40
0
 40
1
 40
1
 40
1
 40
1
 10
895.668714
 20
-99.884793
 30
0.0
 10
895.172510
 20
-101.490750
 30
0.0
 10
894.552214
 20
-102.062730
 30
0.0
 10
893.822472
 20
-102.754626
 30
0.0
  0
SPLINE
  5
3cf
100
AcDbEntity
  8
Calque_1
 62
1
100
AcDbSpline
 70
8
 71
3
 72
8
 73
4
 74
0
 40
0
 40
0
 40
0
 40
0
 40
1
 40
1
 40
1
 40
1
 10
893.822472
 20
-102.754626
 30
0.0
 10
893.092730
 20
-103.446550
 30
0.0
 10
892.620206
 20
-103.581283
 30
0.0
 10
891.824847
 20
-103.482618
 30
0.0
  0
SPLINE
  5
3d0
100
AcDbEntity
  8
Calque_1
 62
1
100
AcDbSpline
 70
8
 71
3
 72
8
 73
4
 74
0
 40
0
 40
0
 40
0
 40
0
 40
1
 40
1
 40
1
 40
1
 10
891.824847
 20
-103.482618
 30
0.0
 10
891.095331
 20
-103.392138
 30
0.0
 10
889.962406
 20
-102.471557
 30
0.0
 10
889.962406
 20
-102.111696
 30
0.0
  0
SPLINE
  5
3d1
100
AcDbEntity
  8
Calque_1
 62
1
100
AcDbSpline
 70
8
 71
3
 72
8
 73
4
 74
0
 40
0
 40
0
 40
0
 40
0
 40
1
 40
1
 40
1
 40
1
 10
889.962406
 20
-102.111696
 30
0.0
 10
889.962406
 20
-102.011309
 30
0.0
 10
889.531255
 20
-102.054969
 30
0.0
 10
889.187565
 20
-102.051582
 30
0.0
  0
SPLINE
  5
3d2
100
AcDbEntity
  8
Calque_1
 62
1
100
AcDbSpline
 70
8
 71
3
 72
8
 73
4
 74
0
 40
0
 40
0
 40
0
 40
0
 40
1
 40
1
 40
1
 40
1
 10
889.187565
 20
-102.051582
 30
0.0
 10
888.314228
 20
-102.043116
 30
0.0
 10
887.865580
 20
-101.645324
 30
0.0
 10
887.859879
 20
-100.873869
 30
0.0
  0
SPLINE
  5
3d3
100
AcDbEntity
  8
Calque_1
 62
1
100
AcDbSpline
 70
8
 71
3
 72
8
 73
4
 74
0
 40
0
 40
0
 40
0
 40
0
 40
1
 40
1
 40
1
 40
1
 10
887.859879
 20
-100.873869
 30
0.0
 10
887.857056
 20
-100.520329
 30
0.0
 10
887.814356
 20
-100.080994
 30
0.0
 10
887.764346
 20
-99.897719
 30
0.0
  0
SPLINE
  5
3d4
100
AcDbEntity
  8
Calque_1
 62
1
100
AcDbSpline
 70
8
 71
3
 72
8
 73
4
 74
0
 40
0
 40
0
 40
0
 40
0
 40
1
 40
1
 40
1
 40
1
 10
887.764346
 20
-99.897719
 30
0.0
 10
887.683828
 20
-99.602627
 30
0.0
 10
887.614261
 20
-99.619307
 30
0.0
 10
887.156553
 20
-100.043741
 30
0.0
  0
SPLINE
  5
3d5
100
AcDbEntity
  8
Calque_1
 62
1
100
AcDbSpline
 70
8
 71
3
 72
8
 73
4
 74
0
 40
0
 40
0
 40
0
 40
0
 40
1
 40
1
 40
1
 40
1
 10
887.156553
 20
-100.043741
 30
0.0
 10
886.649907
 20
-100.567037
 30
0.0
 10
886.554770
 20
-101.111020
 30
0.0
 10
886.699296
 20
-102.198225
 30
0.0
  0
SPLINE
  5
3d6
100
AcDbEntity
  8
Calque_1
 62
1
100
AcDbSpline
 70
8
 71
3
 72
8
 73
4
 74
0
 40
0
 40
0
 40
0
 40
0
 40
1
 40
1
 40
1
 40
1
 10
886.699296
 20
-102.198225
 30
0.0
 10
886.173375
 20
-102.566271
 30
0.0
 10
885.927785
 20
-102.465066
 30
0.0
 10
884.944692
 20
-103.459476
 30
0.0
  0
SPLINE
  5
3d7
100
AcDbEntity
  8
Calque_1
 62
1
100
AcDbSpline
 70
8
 71
3
 72
8
 73
4
 74
0
 40
0
 40
0
 40
0
 40
0
 40
1
 40
1
 40
1
 40
1
 10
884.944692
 20
-103.459476
 30
0.0
 10
883.961571
 20
-104.453886
 30
0.0
 10
883.838127
 20
-107.526101
 30
0.0
 10
884.463080
 20
-107.929763
 30
0.0
  0
SPLINE
  5
3d8
100
AcDbEntity
  8
Calque_1
 62
1
100
AcDbSpline
 70
8
 71
3
 72
8
 73
4
 74
0
 40
0
 40
0
 40
0
 40
0
 40
1
 40
1
 40
1
 40
1
 10
884.463080
 20
-107.929763
 30
0.0
 10
883.745474
 20
-108.170809
 30
0.0
 10
883.061311
 20
-109.256659
 30
0.0
 10
882.880942
 20
-110.093251
 30
0.0
  0
SPLINE
  5
3d9
100
AcDbEntity
  8
Calque_1
 62
1
100
AcDbSpline
 70
8
 71
3
 72
8
 73
4
 74
0
 40
0
 40
0
 40
0
 40
0
 40
1
 40
1
 40
1
 40
1
 10
882.880942
 20
-110.093251
 30
0.0
 10
882.813322
 20
-110.406969
 30
0.0
 10
882.782983
 20
-110.726388
 30
0.0
 10
882.781516
 20
-111.047754
 30
0.0
  0
LINE
  5
3da
100
AcDbEntity
  8
Calque_1
 62
1
100
AcDbLine
 10
882.781516
 20
-111.047754
 30
0.0
 11
882.781516
 21
-111.047754
 31
0.0
  0
SPLINE
  5
3db
100
AcDbEntity
  8
Calque_1
 62
1
100
AcDbSpline
 70
8
 71
3
 72
8
 73
4
 74
0
 40
0
 40
0
 40
0
 40
0
 40
1
 40
1
 40
1
 40
1
 10
881.354600
 20
-133.912326
 30
0.0
 10
881.348956
 20
-134.650620
 30
0.0
 10
881.444629
 20
-134.840640
 30
0.0
 10
881.890879
 20
-135.307605
 30
0.0
  0
SPLINE
  5
3dc
100
AcDbEntity
  8
Calque_1
 62
1
100
AcDbSpline
 70
8
 71
3
 72
8
 73
4
 74
0
 40
0
 40
0
 40
0
 40
0
 40
1
 40
1
 40
1
 40
1
 10
881.890879
 20
-135.307605
 30
0.0
 10
882.201972
 20
-135.633148
 30
0.0
 10
882.535361
 20
-136.328205
 30
0.0
 10
882.631768
 20
-136.328205
 30
0.0
  0
SPLINE
  5
3dd
100
AcDbEntity
  8
Calque_1
 62
1
100
AcDbSpline
 70
8
 71
3
 72
8
 73
4
 74
0
 40
0
 40
0
 40
0
 40
0
 40
1
 40
1
 40
1
 40
1
 10
882.631768
 20
-136.328205
 30
0.0
 10
883.074744
 20
-136.919574
 30
0.0
 10
883.408416
 20
-138.734404
 30
0.0
 10
884.928944
 20
-138.399152
 30
0.0
  0
SPLINE
  5
3de
100
AcDbEntity
  8
Calque_1
 62
1
100
AcDbSpline
 70
8
 71
3
 72
8
 73
4
 74
0
 40
0
 40
0
 40
0
 40
0
 40
1
 40
1
 40
1
 40
1
 10
884.928944
 20
-138.399152
 30
0.0
 10
885.432909
 20
-138.399152
 30
0.0
 10
886.007626
 20
-138.273083
 30
0.0
 10
886.213959
 20
-138.117042
 30
0.0
  0
SPLINE
  5
3df
100
AcDbEntity
  8
Calque_1
 62
1
100
AcDbSpline
 70
8
 71
3
 72
8
 73
4
 74
0
 40
0
 40
0
 40
0
 40
0
 40
1
 40
1
 40
1
 40
1
 10
886.213959
 20
-138.117042
 30
0.0
 10
886.419219
 20
-137.961764
 30
0.0
 10
886.786136
 20
-137.831998
 30
0.0
 10
887.029355
 20
-137.828611
 30
0.0
  0
SPLINE
  5
3e0
100
AcDbEntity
  8
Calque_1
 62
1
100
AcDbSpline
 70
8
 71
3
 72
8
 73
4
 74
0
 40
0
 40
0
 40
0
 40
0
 40
1
 40
1
 40
1
 40
1
 10
887.029355
 20
-137.828611
 30
0.0
 10
888.222111
 20
-137.811960
 30
0.0
 10
889.209070
 20
-136.830391
 30
0.0
 10
889.301921
 20
-135.567786
 30
0.0
  0
SPLINE
  5
3e1
100
AcDbEntity
  8
Calque_1
 62
1
100
AcDbSpline
 70
8
 71
3
 72
8
 73
4
 74
0
 40
0
 40
0
 40
0
 40
0
 40
1
 40
1
 40
1
 40
1
 10
889.301921
 20
-135.567786
 30
0.0
 10
889.355544
 20
-134.838523
 30
0.0
 10
889.484547
 20
-134.550798
 30
0.0
 10
889.929838
 20
-134.168923
 30
0.0
  0
SPLINE
  5
3e2
100
AcDbEntity
  8
Calque_1
 62
1
100
AcDbSpline
 70
8
 71
3
 72
8
 73
4
 74
0
 40
0
 40
0
 40
0
 40
0
 40
1
 40
1
 40
1
 40
1
 10
889.929838
 20
-134.168923
 30
0.0
 10
890.720427
 20
-133.490856
 30
0.0
 10
890.924812
 20
-132.984323
 30
0.0
 10
890.808028
 20
-131.991324
 30
0.0
  0
SPLINE
  5
3e3
100
AcDbEntity
  8
Calque_1
 62
1
100
AcDbSpline
 70
8
 71
3
 72
8
 73
4
 74
0
 40
0
 40
0
 40
0
 40
0
 40
1
 40
1
 40
1
 40
1
 10
890.808028
 20
-131.991324
 30
0.0
 10
890.730446
 20
-131.331686
 30
0.0
 10
890.798997
 20
-130.974365
 30
0.0
 10
891.097645
 20
-130.484596
 30
0.0
  0
SPLINE
  5
3e4
100
AcDbEntity
  8
Calque_1
 62
1
100
AcDbSpline
 70
8
 71
3
 72
8
 73
4
 74
0
 40
0
 40
0
 40
0
 40
0
 40
1
 40
1
 40
1
 40
1
 10
891.097645
 20
-130.484596
 30
0.0
 10
891.563735
 20
-129.720056
 30
0.0
 10
891.582841
 20
-129.378116
 30
0.0
 10
891.209123
 20
-128.483641
 30
0.0
  0
SPLINE
  5
3e5
100
AcDbEntity
  8
Calque_1
 62
1
100
AcDbSpline
 70
8
 71
3
 72
8
 73
4
 74
0
 40
0
 40
0
 40
0
 40
0
 40
1
 40
1
 40
1
 40
1
 10
891.209123
 20
-128.483641
 30
0.0
 10
890.895941
 20
-127.734143
 30
0.0
 10
890.715262
 20
-127.528827
 30
0.0
 10
889.808143
 20
-126.891004
 30
0.0
  0
SPLINE
  5
3e6
100
AcDbEntity
  8
Calque_1
 62
1
100
AcDbSpline
 70
8
 71
3
 72
8
 73
4
 74
0
 40
0
 40
0
 40
0
 40
0
 40
1
 40
1
 40
1
 40
1
 10
889.808143
 20
-126.891004
 30
0.0
 10
889.464453
 20
-126.649338
 30
0.0
 10
889.183219
 20
-126.342590
 30
0.0
 10
889.183219
 20
-126.209579
 30
0.0
  0
SPLINE
  5
3e7
100
AcDbEntity
  8
Calque_1
 62
1
100
AcDbSpline
 70
8
 71
3
 72
8
 73
4
 74
0
 40
0
 40
0
 40
0
 40
0
 40
1
 40
1
 40
1
 40
1
 10
889.183219
 20
-126.209579
 30
0.0
 10
889.183219
 20
-126.076596
 30
0.0
 10
888.988542
 20
-125.790366
 30
0.0
 10
888.750600
 20
-125.573563
 30
0.0
  0
SPLINE
  5
3e8
100
AcDbEntity
  8
Calque_1
 62
1
100
AcDbSpline
 70
8
 71
3
 72
8
 73
4
 74
0
 40
0
 40
0
 40
0
 40
0
 40
1
 40
1
 40
1
 40
1
 10
888.750600
 20
-125.573563
 30
0.0
 10
888.369233
 20
-125.226091
 30
0.0
 10
888.105525
 20
-125.185592
 30
0.0
 10
886.527620
 20
-125.230748
 30
0.0
  0
SPLINE
  5
3e9
100
AcDbEntity
  8
Calque_1
 62
1
100
AcDbSpline
 70
8
 71
3
 72
8
 73
4
 74
0
 40
0
 40
0
 40
0
 40
0
 40
1
 40
1
 40
1
 40
1
 10
886.527620
 20
-125.230748
 30
0.0
 10
884.584266
 20
-125.286374
 30
0.0
 10
884.305036
 20
-125.432565
 30
0.0
 10
884.062184
 20
-126.521463
 30
0.0
  0
SPLINE
  5
3ea
100
AcDbEntity
  8
Calque_1
 62
1
100
AcDbSpline
 70
8
 71
3
 72
8
 73
4
 74
0
 40
0
 40
0
 40
0
 40
0
 40
1
 40
1
 40
1
 40
1
 10
884.062184
 20
-126.521463
 30
0.0
 10
883.939050
 20
-127.073489
 30
0.0
 10
883.570214
 20
-127.490219
 30
0.0
 10
883.286722
 20
-127.397847
 30
0.0
  0
SPLINE
  5
3eb
100
AcDbEntity
  8
Calque_1
 62
1
100
AcDbSpline
 70
8
 71
3
 72
8
 73
4
 74
0
 40
0
 40
0
 40
0
 40
0
 40
1
 40
1
 40
1
 40
1
 10
883.286722
 20
-127.397847
 30
0.0
 10
883.066870
 20
-127.326163
 30
0.0
 10
882.068735
 20
-128.111841
 30
0.0
 10
882.068735
 20
-128.356556
 30
0.0
  0
SPLINE
  5
3ec
100
AcDbEntity
  8
Calque_1
 62
1
100
AcDbSpline
 70
8
 71
3
 72
8
 73
4
 74
0
 40
0
 40
0
 40
0
 40
0
 40
1
 40
1
 40
1
 40
1
 10
882.068735
 20
-128.356556
 30
0.0
 10
882.068735
 20
-128.460583
 30
0.0
 10
881.938941
 20
-128.653313
 30
0.0
 10
881.780332
 20
-128.784970
 30
0.0
  0
SPLINE
  5
3ed
100
AcDbEntity
  8
Calque_1
 62
1
100
AcDbSpline
 70
8
 71
3
 72
8
 73
4
 74
0
 40
0
 40
0
 40
0
 40
0
 40
1
 40
1
 40
1
 40
1
 10
881.780332
 20
-128.784970
 30
0.0
 10
881.402662
 20
-129.098406
 30
0.0
 10
881.413951
 20
-130.010745
 30
0.0
 10
881.808554
 20
-131.044017
 30
0.0
  0
SPLINE
  5
3ee
100
AcDbEntity
  8
Calque_1
 62
1
100
AcDbSpline
 70
8
 71
3
 72
8
 73
4
 74
0
 40
0
 40
0
 40
0
 40
0
 40
1
 40
1
 40
1
 40
1
 10
881.808554
 20
-131.044017
 30
0.0
 10
882.110702
 20
-131.835171
 30
0.0
 10
882.108557
 20
-131.886140
 30
0.0
 10
881.762580
 20
-132.139124
 30
0.0
  0
SPLINE
  5
3ef
100
AcDbEntity
  8
Calque_1
 62
1
100
AcDbSpline
 70
8
 71
3
 72
8
 73
4
 74
0
 40
0
 40
0
 40
0
 40
0
 40
1
 40
1
 40
1
 40
1
 10
881.762580
 20
-132.139124
 30
0.0
 10
881.485692
 20
-132.341590
 30
0.0
 10
881.390894
 20
-132.678282
 30
0.0
 10
881.362418
 20
-133.560226
 30
0.0
  0
SPLINE
  5
3f0
100
AcDbEntity
  8
Calque_1
 62
1
100
AcDbSpline
 70
8
 71
3
 72
8
 73
4
 74
0
 40
0
 40
0
 40
0
 40
0
 40
1
 40
1
 40
1
 40
1
 10
881.362418
 20
-133.560226
 30
0.0
 10
881.358184
 20
-133.690472
 30
0.0
 10
881.355362
 20
-133.806860
 30
0.0
 10
881.354515
 20
-133.912326
 30
0.0
  0
LINE
  5
3f1
100
AcDbEntity
  8
Calque_1
 62
1
100
AcDbLine
 10
881.354515
 20
-133.912326
 30
0.0
 11
881.354600
 21
-133.912326
 31
0.0
  0
SPLINE
  5
3f2
100
AcDbEntity
  8
Calque_1
 62
1
100
AcDbSpline
 70
8
 71
3
 72
8
 73
4
 74
0
 40
0
 40
0
 40
0
 40
0
 40
1
 40
1
 40
1
 40
1
 10
841.501294
 20
-99.911858
 30
0.0
 10
841.498472
 20
-100.447460
 30
0.0
 10
841.561323
 20
-100.987915
 30
0.0
 10
841.655275
 20
-101.513808
 30
0.0
  0
SPLINE
  5
3f3
100
AcDbEntity
  8
Calque_1
 62
1
100
AcDbSpline
 70
8
 71
3
 72
8
 73
4
 74
0
 40
0
 40
0
 40
0
 40
0
 40
1
 40
1
 40
1
 40
1
 10
841.655275
 20
-101.513808
 30
0.0
 10
841.805558
 20
-102.355254
 30
0.0
 10
842.098336
 20
-103.197376
 30
0.0
 10
842.395572
 20
-103.588988
 30
0.0
  0
SPLINE
  5
3f4
100
AcDbEntity
  8
Calque_1
 62
1
100
AcDbSpline
 70
8
 71
3
 72
8
 73
4
 74
0
 40
0
 40
0
 40
0
 40
0
 40
1
 40
1
 40
1
 40
1
 10
842.395572
 20
-103.588988
 30
0.0
 10
841.997610
 20
-104.377150
 30
0.0
 10
841.751287
 20
-104.898358
 30
0.0
 10
841.670402
 20
-105.662334
 30
0.0
  0
SPLINE
  5
3f5
100
AcDbEntity
  8
Calque_1
 62
1
100
AcDbSpline
 70
8
 71
3
 72
8
 73
4
 74
0
 40
0
 40
0
 40
0
 40
0
 40
1
 40
1
 40
1
 40
1
 10
841.670402
 20
-105.662334
 30
0.0
 10
841.580091
 20
-106.515548
 30
0.0
 10
841.515631
 20
-107.663938
 30
0.0
 10
841.927619
 20
-108.427293
 30
0.0
  0
SPLINE
  5
3f6
100
AcDbEntity
  8
Calque_1
 62
1
100
AcDbSpline
 70
8
 71
3
 72
8
 73
4
 74
0
 40
0
 40
0
 40
0
 40
0
 40
1
 40
1
 40
1
 40
1
 10
841.927619
 20
-108.427293
 30
0.0
 10
842.115184
 20
-108.774850
 30
0.0
 10
842.382505
 20
-109.231288
 30
0.0
 10
842.810834
 20
-109.212068
 30
0.0
  0
SPLINE
  5
3f7
100
AcDbEntity
  8
Calque_1
 62
1
100
AcDbSpline
 70
8
 71
3
 72
8
 73
4
 74
0
 40
0
 40
0
 40
0
 40
0
 40
1
 40
1
 40
1
 40
1
 10
842.810834
 20
-109.212068
 30
0.0
 10
842.575489
 20
-109.699212
 30
0.0
 10
842.453936
 20
-110.146675
 30
0.0
 10
842.448263
 20
-110.877123
 30
0.0
  0
SPLINE
  5
3f8
100
AcDbEntity
  8
Calque_1
 62
1
100
AcDbSpline
 70
8
 71
3
 72
8
 73
4
 74
0
 40
0
 40
0
 40
0
 40
0
 40
1
 40
1
 40
1
 40
1
 10
842.448263
 20
-110.877123
 30
0.0
 10
842.442618
 20
-111.607570
 30
0.0
 10
842.964701
 20
-112.722546
 30
0.0
 10
843.350725
 20
-113.069143
 30
0.0
  0
SPLINE
  5
3f9
100
AcDbEntity
  8
Calque_1
 62
1
100
AcDbSpline
 70
8
 71
3
 72
8
 73
4
 74
0
 40
0
 40
0
 40
0
 40
0
 40
1
 40
1
 40
1
 40
1
 10
843.350725
 20
-113.069143
 30
0.0
 10
842.438724
 20
-117.247048
 30
0.0
 10
845.602209
 20
-119.297928
 30
0.0
 10
846.733440
 20
-118.175644
 30
0.0
  0
SPLINE
  5
3fa
100
AcDbEntity
  8
Calque_1
 62
1
100
AcDbSpline
 70
8
 71
3
 72
8
 73
4
 74
0
 40
0
 40
0
 40
0
 40
0
 40
1
 40
1
 40
1
 40
1
 10
846.733440
 20
-118.175644
 30
0.0
 10
847.213388
 20
-119.805731
 30
0.0
 10
849.138764
 20
-121.437370
 30
0.0
 10
850.470091
 20
-120.048075
 30
0.0
  0
SPLINE
  5
3fb
100
AcDbEntity
  8
Calque_1
 62
1
100
AcDbSpline
 70
8
 71
3
 72
8
 73
4
 74
0
 40
0
 40
0
 40
0
 40
0
 40
1
 40
1
 40
1
 40
1
 10
850.470091
 20
-120.048075
 30
0.0
 10
850.658756
 20
-121.516534
 30
0.0
 10
853.991632
 20
-121.301029
 30
0.0
 10
854.055442
 20
-119.682456
 30
0.0
  0
SPLINE
  5
3fc
100
AcDbEntity
  8
Calque_1
 62
1
100
AcDbSpline
 70
8
 71
3
 72
8
 73
4
 74
0
 40
0
 40
0
 40
0
 40
0
 40
1
 40
1
 40
1
 40
1
 10
854.055442
 20
-119.682456
 30
0.0
 10
856.089220
 20
-121.024225
 30
0.0
 10
856.957956
 20
-119.247467
 30
0.0
 10
857.414677
 20
-116.910611
 30
0.0
  0
SPLINE
  5
3fd
100
AcDbEntity
  8
Calque_1
 62
1
100
AcDbSpline
 70
8
 71
3
 72
8
 73
4
 74
0
 40
0
 40
0
 40
0
 40
0
 40
1
 40
1
 40
1
 40
1
 10
857.414677
 20
-116.910611
 30
0.0
 10
858.844922
 20
-116.777289
 30
0.0
 10
859.869220
 20
-113.016819
 30
0.0
 10
859.171510
 20
-111.377051
 30
0.0
  0
SPLINE
  5
3fe
100
AcDbEntity
  8
Calque_1
 62
1
100
AcDbSpline
 70
8
 71
3
 72
8
 73
4
 74
0
 40
0
 40
0
 40
0
 40
0
 40
1
 40
1
 40
1
 40
1
 10
859.171510
 20
-111.377051
 30
0.0
 10
859.525332
 20
-111.102985
 30
0.0
 10
861.364010
 20
-107.978926
 30
0.0
 10
859.855250
 20
-104.383952
 30
0.0
  0
SPLINE
  5
3ff
100
AcDbEntity
  8
Calque_1
 62
1
100
AcDbSpline
 70
8
 71
3
 72
8
 73
4
 74
0
 40
0
 40
0
 40
0
 40
0
 40
1
 40
1
 40
1
 40
1
 10
859.855250
 20
-104.383952
 30
0.0
 10
860.442498
 20
-103.470539
 30
0.0
 10
861.069850
 20
-99.087177
 30
0.0
 10
859.280476
 20
-97.648634
 30
0.0
  0
SPLINE
  5
400
100
AcDbEntity
  8
Calque_1
 62
1
100
AcDbSpline
 70
8
 71
3
 72
8
 73
4
 74
0
 40
0
 40
0
 40
0
 40
0
 40
1
 40
1
 40
1
 40
1
 10
859.280476
 20
-97.648634
 30
0.0
 10
860.356618
 20
-96.379424
 30
0.0
 10
859.153984
 20
-91.394984
 30
0.0
 10
857.661282
 20
-91.689963
 30
0.0
  0
SPLINE
  5
401
100
AcDbEntity
  8
Calque_1
 62
1
100
AcDbSpline
 70
8
 71
3
 72
8
 73
4
 74
0
 40
0
 40
0
 40
0
 40
0
 40
1
 40
1
 40
1
 40
1
 10
857.661282
 20
-91.689963
 30
0.0
 10
857.435843
 20
-89.570559
 30
0.0
 10
855.340597
 20
-88.929914
 30
0.0
 10
853.541544
 20
-89.775283
 30
0.0
  0
SPLINE
  5
402
100
AcDbEntity
  8
Calque_1
 62
1
100
AcDbSpline
 70
8
 71
3
 72
8
 73
4
 74
0
 40
0
 40
0
 40
0
 40
0
 40
1
 40
1
 40
1
 40
1
 10
853.541544
 20
-89.775283
 30
0.0
 10
852.319437
 20
-85.164449
 30
0.0
 10
848.793211
 20
-86.246066
 30
0.0
 10
847.199361
 20
-89.013452
 30
0.0
  0
SPLINE
  5
403
100
AcDbEntity
  8
Calque_1
 62
1
100
AcDbSpline
 70
8
 71
3
 72
8
 73
4
 74
0
 40
0
 40
0
 40
0
 40
0
 40
1
 40
1
 40
1
 40
1
 10
847.199361
 20
-89.013452
 30
0.0
 10
846.696074
 20
-88.237595
 30
0.0
 10
845.518333
 20
-88.316363
 30
0.0
 10
845.004801
 20
-88.907844
 30
0.0
  0
SPLINE
  5
404
100
AcDbEntity
  8
Calque_1
 62
1
100
AcDbSpline
 70
8
 71
3
 72
8
 73
4
 74
0
 40
0
 40
0
 40
0
 40
0
 40
1
 40
1
 40
1
 40
1
 10
845.004801
 20
-88.907844
 30
0.0
 10
844.599078
 20
-89.431141
 30
0.0
 10
844.522907
 20
-89.975124
 30
0.0
 10
844.638646
 20
-91.062329
 30
0.0
  0
SPLINE
  5
405
100
AcDbEntity
  8
Calque_1
 62
1
100
AcDbSpline
 70
8
 71
3
 72
8
 73
4
 74
0
 40
0
 40
0
 40
0
 40
0
 40
1
 40
1
 40
1
 40
1
 10
844.638646
 20
-91.062329
 30
0.0
 10
844.217486
 20
-91.430375
 30
0.0
 10
844.020833
 20
-91.329170
 30
0.0
 10
843.233546
 20
-92.323580
 30
0.0
  0
SPLINE
  5
406
100
AcDbEntity
  8
Calque_1
 62
1
100
AcDbSpline
 70
8
 71
3
 72
8
 73
4
 74
0
 40
0
 40
0
 40
0
 40
0
 40
1
 40
1
 40
1
 40
1
 10
843.233546
 20
-92.323580
 30
0.0
 10
842.446287
 20
-93.317990
 30
0.0
 10
842.347425
 20
-96.390205
 30
0.0
 10
842.847890
 20
-96.793867
 30
0.0
  0
SPLINE
  5
407
100
AcDbEntity
  8
Calque_1
 62
1
100
AcDbSpline
 70
8
 71
3
 72
8
 73
4
 74
0
 40
0
 40
0
 40
0
 40
0
 40
1
 40
1
 40
1
 40
1
 10
842.847890
 20
-96.793867
 30
0.0
 10
842.273229
 20
-97.034913
 30
0.0
 10
841.725351
 20
-98.120763
 30
0.0
 10
841.580909
 20
-98.957354
 30
0.0
  0
SPLINE
  5
408
100
AcDbEntity
  8
Calque_1
 62
1
100
AcDbSpline
 70
8
 71
3
 72
8
 73
4
 74
0
 40
0
 40
0
 40
0
 40
0
 40
1
 40
1
 40
1
 40
1
 10
841.580909
 20
-98.957354
 30
0.0
 10
841.526751
 20
-99.271073
 30
0.0
 10
841.502452
 20
-99.590492
 30
0.0
 10
841.501294
 20
-99.911858
 30
0.0
  0
LINE
  5
409
100
AcDbEntity
  8
Calque_1
 62
1
100
AcDbLine
 10
841.501294
 20
-99.911858
 30
0.0
 11
841.501294
 21
-99.911858
 31
0.0
  0
SPLINE
  5
40a
100
AcDbEntity
  8
Calque_1
 62
1
100
AcDbSpline
 70
8
 71
3
 72
8
 73
4
 74
0
 40
0
 40
0
 40
0
 40
0
 40
1
 40
1
 40
1
 40
1
 10
865.086916
 20
-121.168751
 30
0.0
 10
864.220804
 20
-121.412281
 30
0.0
 10
863.995026
 20
-124.422378
 30
0.0
 10
865.294547
 20
-124.140269
 30
0.0
  0
SPLINE
  5
40b
100
AcDbEntity
  8
Calque_1
 62
1
100
AcDbSpline
 70
8
 71
3
 72
8
 73
4
 74
0
 40
0
 40
0
 40
0
 40
0
 40
1
 40
1
 40
1
 40
1
 10
865.294547
 20
-124.140269
 30
0.0
 10
864.487278
 20
-125.349874
 30
0.0
 10
865.069898
 20
-128.322266
 30
0.0
 10
866.260763
 20
-127.328251
 30
0.0
  0
SPLINE
  5
40c
100
AcDbEntity
  8
Calque_1
 62
1
100
AcDbSpline
 70
8
 71
3
 72
8
 73
4
 74
0
 40
0
 40
0
 40
0
 40
0
 40
1
 40
1
 40
1
 40
1
 10
866.260763
 20
-127.328251
 30
0.0
 10
866.070319
 20
-128.686897
 30
0.0
 10
867.645232
 20
-128.954896
 30
0.0
 10
868.119224
 20
-127.668103
 30
0.0
  0
SPLINE
  5
40d
100
AcDbEntity
  8
Calque_1
 62
1
100
AcDbSpline
 70
8
 71
3
 72
8
 73
4
 74
0
 40
0
 40
0
 40
0
 40
0
 40
1
 40
1
 40
1
 40
1
 10
868.119224
 20
-127.668103
 30
0.0
 10
869.187690
 20
-128.656304
 30
0.0
 10
871.026142
 20
-127.299239
 30
0.0
 10
869.944525
 20
-125.851693
 30
0.0
  0
SPLINE
  5
40e
100
AcDbEntity
  8
Calque_1
 62
1
100
AcDbSpline
 70
8
 71
3
 72
8
 73
4
 74
0
 40
0
 40
0
 40
0
 40
0
 40
1
 40
1
 40
1
 40
1
 10
869.944525
 20
-125.851693
 30
0.0
 10
870.884889
 20
-126.067932
 30
0.0
 10
872.168351
 20
-125.108799
 30
0.0
 10
871.053799
 20
-123.564169
 30
0.0
  0
SPLINE
  5
40f
100
AcDbEntity
  8
Calque_1
 62
1
100
AcDbSpline
 70
8
 71
3
 72
8
 73
4
 74
0
 40
0
 40
0
 40
0
 40
0
 40
1
 40
1
 40
1
 40
1
 10
871.053799
 20
-123.564169
 30
0.0
 10
871.203942
 20
-123.447865
 30
0.0
 10
872.529822
 20
-122.031251
 30
0.0
 10
871.071015
 20
-120.960415
 30
0.0
  0
SPLINE
  5
410
100
AcDbEntity
  8
Calque_1
 62
1
100
AcDbSpline
 70
8
 71
3
 72
8
 73
4
 74
0
 40
0
 40
0
 40
0
 40
0
 40
1
 40
1
 40
1
 40
1
 10
871.071015
 20
-120.960415
 30
0.0
 10
871.320217
 20
-120.572811
 30
0.0
 10
872.647452
 20
-118.955282
 30
0.0
 10
870.645226
 20
-118.496389
 30
0.0
  0
SPLINE
  5
411
100
AcDbEntity
  8
Calque_1
 62
1
100
AcDbSpline
 70
8
 71
3
 72
8
 73
4
 74
0
 40
0
 40
0
 40
0
 40
0
 40
1
 40
1
 40
1
 40
1
 10
870.645226
 20
-118.496389
 30
0.0
 10
871.487660
 20
-117.422054
 30
0.0
 10
870.952002
 20
-115.424880
 30
0.0
 10
868.876850
 20
-116.428575
 30
0.0
  0
SPLINE
  5
412
100
AcDbEntity
  8
Calque_1
 62
1
100
AcDbSpline
 70
8
 71
3
 72
8
 73
4
 74
0
 40
0
 40
0
 40
0
 40
0
 40
1
 40
1
 40
1
 40
1
 10
868.876850
 20
-116.428575
 30
0.0
 10
867.637471
 20
-114.458579
 30
0.0
 10
865.472375
 20
-116.194387
 30
0.0
 10
865.988080
 20
-117.237114
 30
0.0
  0
SPLINE
  5
413
100
AcDbEntity
  8
Calque_1
 62
1
100
AcDbSpline
 70
8
 71
3
 72
8
 73
4
 74
0
 40
0
 40
0
 40
0
 40
0
 40
1
 40
1
 40
1
 40
1
 10
865.988080
 20
-117.237114
 30
0.0
 10
865.047715
 20
-116.537456
 30
0.0
 10
865.005777
 20
-118.083639
 30
0.0
 10
865.218149
 20
-118.254948
 30
0.0
  0
SPLINE
  5
414
100
AcDbEntity
  8
Calque_1
 62
1
100
AcDbSpline
 70
8
 71
3
 72
8
 73
4
 74
0
 40
0
 40
0
 40
0
 40
0
 40
1
 40
1
 40
1
 40
1
 10
865.218149
 20
-118.254948
 30
0.0
 10
864.480872
 20
-118.911171
 30
0.0
 10
864.057341
 20
-120.560280
 30
0.0
 10
865.086831
 20
-121.168751
 30
0.0
  0
LINE
  5
415
100
AcDbEntity
  8
Calque_1
 62
1
100
AcDbLine
 10
865.086831
 20
-121.168751
 30
0.0
 11
865.086916
 21
-121.168751
 31
0.0
  0
SPLINE
  5
416
100
AcDbEntity
  8
Calque_1
 62
1
100
AcDbSpline
 70
8
 71
3
 72
8
 73
4
 74
0
 40
0
 40
0
 40
0
 40
0
 40
1
 40
1
 40
1
 40
1
 10
876.503652
 20
-130.264520
 30
0.0
 10
875.605790
 20
-130.655764
 30
0.0
 10
875.827955
 20
-131.963695
 30
0.0
 10
876.679504
 20
-131.455356
 30
0.0
  0
SPLINE
  5
417
100
AcDbEntity
  8
Calque_1
 62
1
100
AcDbSpline
 70
8
 71
3
 72
8
 73
4
 74
0
 40
0
 40
0
 40
0
 40
0
 40
1
 40
1
 40
1
 40
1
 10
876.679504
 20
-131.455356
 30
0.0
 10
876.506304
 20
-132.529127
 30
0.0
 10
877.296611
 20
-132.181147
 30
0.0
 10
877.539012
 20
-131.523061
 30
0.0
  0
SPLINE
  5
418
100
AcDbEntity
  8
Calque_1
 62
1
100
AcDbSpline
 70
8
 71
3
 72
8
 73
4
 74
0
 40
0
 40
0
 40
0
 40
0
 40
1
 40
1
 40
1
 40
1
 10
877.539012
 20
-131.523061
 30
0.0
 10
877.949024
 20
-132.164835
 30
0.0
 10
878.813443
 20
-131.728491
 30
0.0
 10
878.260287
 20
-130.988222
 30
0.0
  0
SPLINE
  5
419
100
AcDbEntity
  8
Calque_1
 62
1
100
AcDbSpline
 70
8
 71
3
 72
8
 73
4
 74
0
 40
0
 40
0
 40
0
 40
0
 40
1
 40
1
 40
1
 40
1
 10
878.260287
 20
-130.988222
 30
0.0
 10
878.741194
 20
-131.098825
 30
0.0
 10
879.867486
 20
-130.471868
 30
0.0
 10
878.751806
 20
-129.803171
 30
0.0
  0
SPLINE
  5
41a
100
AcDbEntity
  8
Calque_1
 62
1
100
AcDbSpline
 70
8
 71
3
 72
8
 73
4
 74
0
 40
0
 40
0
 40
0
 40
0
 40
1
 40
1
 40
1
 40
1
 10
878.751806
 20
-129.803171
 30
0.0
 10
879.685764
 20
-129.001378
 30
0.0
 10
879.419035
 20
-127.880109
 30
0.0
 10
878.785334
 20
-127.711622
 30
0.0
  0
SPLINE
  5
41b
100
AcDbEntity
  8
Calque_1
 62
1
100
AcDbSpline
 70
8
 71
3
 72
8
 73
4
 74
0
 40
0
 40
0
 40
0
 40
0
 40
1
 40
1
 40
1
 40
1
 10
878.785334
 20
-127.711622
 30
0.0
 10
879.216174
 20
-127.162192
 30
0.0
 10
878.911910
 20
-125.534532
 30
0.0
 10
877.850642
 20
-126.047809
 30
0.0
  0
SPLINE
  5
41c
100
AcDbEntity
  8
Calque_1
 62
1
100
AcDbSpline
 70
8
 71
3
 72
8
 73
4
 74
0
 40
0
 40
0
 40
0
 40
0
 40
1
 40
1
 40
1
 40
1
 10
877.850642
 20
-126.047809
 30
0.0
 10
877.216799
 20
-125.040332
 30
0.0
 10
876.048935
 20
-126.003839
 30
0.0
 10
876.646117
 20
-127.128212
 30
0.0
  0
SPLINE
  5
41d
100
AcDbEntity
  8
Calque_1
 62
1
100
AcDbSpline
 70
8
 71
3
 72
8
 73
4
 74
0
 40
0
 40
0
 40
0
 40
0
 40
1
 40
1
 40
1
 40
1
 10
876.646117
 20
-127.128212
 30
0.0
 10
875.522929
 20
-126.438743
 30
0.0
 10
875.580108
 20
-127.903928
 30
0.0
 10
876.306463
 20
-128.517508
 30
0.0
  0
SPLINE
  5
41e
100
AcDbEntity
  8
Calque_1
 62
1
100
AcDbSpline
 70
8
 71
3
 72
8
 73
4
 74
0
 40
0
 40
0
 40
0
 40
0
 40
1
 40
1
 40
1
 40
1
 10
876.306463
 20
-128.517508
 30
0.0
 10
875.513193
 20
-128.195859
 30
0.0
 10
875.404904
 20
-130.310155
 30
0.0
 10
876.503652
 20
-130.264520
 30
0.0
  0
LINE
  5
41f
100
AcDbEntity
  8
Calque_1
 62
1
100
AcDbLine
 10
876.503652
 20
-130.264520
 30
0.0
 11
876.503652
 21
-130.264520
 31
0.0
  0
SPLINE
  5
420
100
AcDbEntity
  8
Calque_1
 62
1
100
AcDbSpline
 70
8
 71
3
 72
8
 73
4
 74
0
 40
0
 40
0
 40
0
 40
0
 40
1
 40
1
 40
1
 40
1
 10
975.432329
 20
-116.588717
 30
0.0
 10
974.608209
 20
-118.577894
 30
0.0
 10
974.739933
 20
-130.047962
 30
0.0
 10
976.047819
 20
-131.617180
 30
0.0
  0
SPLINE
  5
421
100
AcDbEntity
  8
Calque_1
 62
1
100
AcDbSpline
 70
8
 71
3
 72
8
 73
4
 74
0
 40
0
 40
0
 40
0
 40
0
 40
1
 40
1
 40
1
 40
1
 10
976.047819
 20
-131.617180
 30
0.0
 10
977.523075
 20
-133.100105
 30
0.0
 10
980.495459
 20
-133.519266
 30
0.0
 10
982.813363
 20
-131.680097
 30
0.0
  0
SPLINE
  5
422
100
AcDbEntity
  8
Calque_1
 62
1
100
AcDbSpline
 70
8
 71
3
 72
8
 73
4
 74
0
 40
0
 40
0
 40
0
 40
0
 40
1
 40
1
 40
1
 40
1
 10
982.813363
 20
-131.680097
 30
0.0
 10
984.179412
 20
-132.834877
 30
0.0
 10
984.660202
 20
-132.935526
 30
0.0
 10
987.326743
 20
-132.585417
 30
0.0
  0
SPLINE
  5
423
100
AcDbEntity
  8
Calque_1
 62
1
100
AcDbSpline
 70
8
 71
3
 72
8
 73
4
 74
0
 40
0
 40
0
 40
0
 40
0
 40
1
 40
1
 40
1
 40
1
 10
987.326743
 20
-132.585417
 30
0.0
 10
989.993284
 20
-132.235308
 30
0.0
 10
992.871308
 20
-128.621297
 30
0.0
 10
997.932873
 20
-127.577136
 30
0.0
  0
SPLINE
  5
424
100
AcDbEntity
  8
Calque_1
 62
1
100
AcDbSpline
 70
8
 71
3
 72
8
 73
4
 74
0
 40
0
 40
0
 40
0
 40
0
 40
1
 40
1
 40
1
 40
1
 10
997.932873
 20
-127.577136
 30
0.0
 10
998.977495
 20
-125.268312
 30
0.0
 10
990.543464
 20
-124.009968
 30
0.0
 10
989.389021
 20
-124.009815
 30
0.0
  0
SPLINE
  5
425
100
AcDbEntity
  8
Calque_1
 62
1
100
AcDbSpline
 70
8
 71
3
 72
8
 73
4
 74
0
 40
0
 40
0
 40
0
 40
0
 40
1
 40
1
 40
1
 40
1
 10
989.389021
 20
-124.009815
 30
0.0
 10
988.234579
 20
-124.009662
 30
0.0
 10
988.095124
 20
-124.069757
 30
0.0
 10
987.842627
 20
-124.094298
 30
0.0
  0
SPLINE
  5
426
100
AcDbEntity
  8
Calque_1
 62
1
100
AcDbSpline
 70
8
 71
3
 72
8
 73
4
 74
0
 40
0
 40
0
 40
0
 40
0
 40
1
 40
1
 40
1
 40
1
 10
987.842627
 20
-124.094298
 30
0.0
 10
987.590099
 20
-124.118839
 30
0.0
 10
987.277968
 20
-126.051203
 30
0.0
 10
987.842627
 20
-126.030128
 30
0.0
  0
SPLINE
  5
427
100
AcDbEntity
  8
Calque_1
 62
1
100
AcDbSpline
 70
8
 71
3
 72
8
 73
4
 74
0
 40
0
 40
0
 40
0
 40
0
 40
1
 40
1
 40
1
 40
1
 10
987.842627
 20
-126.030128
 30
0.0
 10
988.870469
 20
-126.186455
 30
0.0
 10
990.535090
 20
-124.591684
 30
0.0
 10
995.144425
 20
-126.892839
 30
0.0
  0
SPLINE
  5
428
100
AcDbEntity
  8
Calque_1
 62
1
100
AcDbSpline
 70
8
 71
3
 72
8
 73
4
 74
0
 40
0
 40
0
 40
0
 40
0
 40
1
 40
1
 40
1
 40
1
 10
995.144425
 20
-126.892839
 30
0.0
 10
990.944895
 20
-129.261451
 30
0.0
 10
986.620574
 20
-133.002431
 30
0.0
 10
984.296871
 20
-130.186374
 30
0.0
  0
SPLINE
  5
429
100
AcDbEntity
  8
Calque_1
 62
1
100
AcDbSpline
 70
8
 71
3
 72
8
 73
4
 74
0
 40
0
 40
0
 40
0
 40
0
 40
1
 40
1
 40
1
 40
1
 10
984.296871
 20
-130.186374
 30
0.0
 10
983.120618
 20
-128.624825
 30
0.0
 10
984.913098
 20
-126.912533
 30
0.0
 10
984.394514
 20
-126.272134
 30
0.0
  0
SPLINE
  5
42a
100
AcDbEntity
  8
Calque_1
 62
1
100
AcDbSpline
 70
8
 71
3
 72
8
 73
4
 74
0
 40
0
 40
0
 40
0
 40
0
 40
1
 40
1
 40
1
 40
1
 10
984.394514
 20
-126.272134
 30
0.0
 10
983.897281
 20
-125.774901
 30
0.0
 10
982.955916
 20
-125.774901
 30
0.0
 10
982.458684
 20
-126.272134
 30
0.0
  0
SPLINE
  5
42b
100
AcDbEntity
  8
Calque_1
 62
1
100
AcDbSpline
 70
8
 71
3
 72
8
 73
4
 74
0
 40
0
 40
0
 40
0
 40
0
 40
1
 40
1
 40
1
 40
1
 10
982.458684
 20
-126.272134
 30
0.0
 10
981.536001
 20
-127.322584
 30
0.0
 10
982.780080
 20
-129.575240
 30
0.0
 10
981.489004
 20
-130.557649
 30
0.0
  0
SPLINE
  5
42c
100
AcDbEntity
  8
Calque_1
 62
1
100
AcDbSpline
 70
8
 71
3
 72
8
 73
4
 74
0
 40
0
 40
0
 40
0
 40
0
 40
1
 40
1
 40
1
 40
1
 10
981.489004
 20
-130.557649
 30
0.0
 10
980.197899
 20
-131.540029
 30
0.0
 10
977.087471
 20
-131.833571
 30
0.0
 10
977.068145
 20
-128.555466
 30
0.0
  0
SPLINE
  5
42d
100
AcDbEntity
  8
Calque_1
 62
1
100
AcDbSpline
 70
8
 71
3
 72
8
 73
4
 74
0
 40
0
 40
0
 40
0
 40
0
 40
1
 40
1
 40
1
 40
1
 10
977.068145
 20
-128.555466
 30
0.0
 10
977.068145
 20
-128.555466
 30
0.0
 10
977.627896
 20
-116.614454
 30
0.0
 10
977.368159
 20
-116.588656
 30
0.0
  0
SPLINE
  5
42e
100
AcDbEntity
  8
Calque_1
 62
1
100
AcDbSpline
 70
8
 71
3
 72
8
 73
4
 74
0
 40
0
 40
0
 40
0
 40
0
 40
1
 40
1
 40
1
 40
1
 10
977.368159
 20
-116.588656
 30
0.0
 10
976.285591
 20
-116.481166
 30
0.0
 10
976.604779
 20
-115.866289
 30
0.0
 10
975.432329
 20
-116.588656
 30
0.0
  0
LINE
  5
42f
100
AcDbEntity
  8
Calque_1
 62
1
100
AcDbLine
 10
975.432329
 20
-116.588656
 30
0.0
 11
975.432329
 21
-116.588717
 31
0.0
  0
SPLINE
  5
430
100
AcDbEntity
  8
Calque_1
 62
1
100
AcDbSpline
 70
8
 71
3
 72
8
 73
4
 74
0
 40
0
 40
0
 40
0
 40
0
 40
1
 40
1
 40
1
 40
1
 10
1017.439898
 20
-126.051111
 30
0.0
 10
1016.871741
 20
-126.051111
 30
0.0
 10
1016.258092
 20
-126.247869
 30
0.0
 10
1015.598704
 20
-126.640679
 30
0.0
  0
SPLINE
  5
431
100
AcDbEntity
  8
Calque_1
 62
1
100
AcDbSpline
 70
8
 71
3
 72
8
 73
4
 74
0
 40
0
 40
0
 40
0
 40
0
 40
1
 40
1
 40
1
 40
1
 10
1015.598704
 20
-126.640679
 30
0.0
 10
1014.651756
 20
-127.201842
 30
0.0
 10
1014.108140
 20
-128.116948
 30
0.0
 10
1013.967827
 20
-129.386549
 30
0.0
  0
SPLINE
  5
432
100
AcDbEntity
  8
Calque_1
 62
1
100
AcDbSpline
 70
8
 71
3
 72
8
 73
4
 74
0
 40
0
 40
0
 40
0
 40
0
 40
1
 40
1
 40
1
 40
1
 10
1013.967827
 20
-129.386549
 30
0.0
 10
1013.932764
 20
-129.730247
 30
0.0
 10
1013.761222
 20
-130.028575
 30
0.0
 10
1013.452587
 20
-130.281072
 30
0.0
  0
SPLINE
  5
433
100
AcDbEntity
  8
Calque_1
 62
1
100
AcDbSpline
 70
8
 71
3
 72
8
 73
4
 74
0
 40
0
 40
0
 40
0
 40
0
 40
1
 40
1
 40
1
 40
1
 10
1013.452587
 20
-130.281072
 30
0.0
 10
1012.386185
 20
-130.975553
 30
0.0
 10
1009.101393
 20
-130.594983
 30
0.0
 10
1008.489615
 20
-130.080356
 30
0.0
  0
SPLINE
  5
434
100
AcDbEntity
  8
Calque_1
 62
1
100
AcDbSpline
 70
8
 71
3
 72
8
 73
4
 74
0
 40
0
 40
0
 40
0
 40
0
 40
1
 40
1
 40
1
 40
1
 10
1008.489615
 20
-130.080356
 30
0.0
 10
1008.375192
 20
-128.631175
 30
0.0
 10
1007.953577
 20
-126.435669
 30
0.0
 10
1006.685478
 20
-125.271349
 30
0.0
  0
SPLINE
  5
435
100
AcDbEntity
  8
Calque_1
 62
1
100
AcDbSpline
 70
8
 71
3
 72
8
 73
4
 74
0
 40
0
 40
0
 40
0
 40
0
 40
1
 40
1
 40
1
 40
1
 10
1006.685478
 20
-125.271349
 30
0.0
 10
1006.033698
 20
-124.672915
 30
0.0
 10
1004.764832
 20
-125.375526
 30
0.0
 10
1004.954872
 20
-126.184706
 30
0.0
  0
SPLINE
  5
436
100
AcDbEntity
  8
Calque_1
 62
1
100
AcDbSpline
 70
8
 71
3
 72
8
 73
4
 74
0
 40
0
 40
0
 40
0
 40
0
 40
1
 40
1
 40
1
 40
1
 10
1004.954872
 20
-126.184706
 30
0.0
 10
1005.952590
 20
-128.241218
 30
0.0
 10
1006.863646
 20
-129.532569
 30
0.0
 10
1006.634279
 20
-130.922759
 30
0.0
  0
SPLINE
  5
437
100
AcDbEntity
  8
Calque_1
 62
1
100
AcDbSpline
 70
8
 71
3
 72
8
 73
4
 74
0
 40
0
 40
0
 40
0
 40
0
 40
1
 40
1
 40
1
 40
1
 10
1006.634279
 20
-130.922759
 30
0.0
 10
1006.048116
 20
-136.007670
 30
0.0
 10
1001.269999
 20
-135.771462
 30
0.0
 10
999.221464
 20
-134.106810
 30
0.0
  0
SPLINE
  5
438
100
AcDbEntity
  8
Calque_1
 62
1
100
AcDbSpline
 70
8
 71
3
 72
8
 73
4
 74
0
 40
0
 40
0
 40
0
 40
0
 40
1
 40
1
 40
1
 40
1
 10
999.221464
 20
-134.106810
 30
0.0
 10
998.155277
 20
-134.106810
 30
0.0
 10
997.455703
 20
-136.785162
 30
0.0
 10
998.585022
 20
-136.785162
 30
0.0
  0
SPLINE
  5
439
100
AcDbEntity
  8
Calque_1
 62
1
100
AcDbSpline
 70
8
 71
3
 72
8
 73
4
 74
0
 40
0
 40
0
 40
0
 40
0
 40
1
 40
1
 40
1
 40
1
 10
998.585022
 20
-136.785162
 30
0.0
 10
1003.401974
 20
-137.439488
 30
0.0
 10
1007.314190
 20
-136.000123
 30
0.0
 10
1008.370591
 20
-131.932931
 30
0.0
  0
SPLINE
  5
43a
100
AcDbEntity
  8
Calque_1
 62
1
100
AcDbSpline
 70
8
 71
3
 72
8
 73
4
 74
0
 40
0
 40
0
 40
0
 40
0
 40
1
 40
1
 40
1
 40
1
 10
1008.370591
 20
-131.932931
 30
0.0
 10
1009.254898
 20
-133.318582
 30
0.0
 10
1013.107938
 20
-133.225571
 30
0.0
 10
1014.683230
 20
-132.080331
 30
0.0
  0
SPLINE
  5
43b
100
AcDbEntity
  8
Calque_1
 62
1
100
AcDbSpline
 70
8
 71
3
 72
8
 73
4
 74
0
 40
0
 40
0
 40
0
 40
0
 40
1
 40
1
 40
1
 40
1
 10
1014.683230
 20
-132.080331
 30
0.0
 10
1015.454801
 20
-132.767727
 30
0.0
 10
1016.563506
 20
-133.111455
 30
0.0
 10
1018.008484
 20
-133.111455
 30
0.0
  0
SPLINE
  5
43c
100
AcDbEntity
  8
Calque_1
 62
1
100
AcDbSpline
 70
8
 71
3
 72
8
 73
4
 74
0
 40
0
 40
0
 40
0
 40
0
 40
1
 40
1
 40
1
 40
1
 10
1018.008484
 20
-133.111455
 30
0.0
 10
1019.039608
 20
-133.111455
 30
0.0
 10
1019.895447
 20
-132.753247
 30
0.0
 10
1020.575848
 20
-132.037783
 30
0.0
  0
SPLINE
  5
43d
100
AcDbEntity
  8
Calque_1
 62
1
100
AcDbSpline
 70
8
 71
3
 72
8
 73
4
 74
0
 40
0
 40
0
 40
0
 40
0
 40
1
 40
1
 40
1
 40
1
 10
1020.575848
 20
-132.037783
 30
0.0
 10
1021.038785
 20
-131.553802
 30
0.0
 10
1021.270238
 20
-130.810238
 30
0.0
 10
1021.270238
 20
-129.807153
 30
0.0
  0
SPLINE
  5
43e
100
AcDbEntity
  8
Calque_1
 62
1
100
AcDbSpline
 70
8
 71
3
 72
8
 73
4
 74
0
 40
0
 40
0
 40
0
 40
0
 40
1
 40
1
 40
1
 40
1
 10
1021.270238
 20
-129.807153
 30
0.0
 10
1021.270238
 20
-128.516507
 30
0.0
 10
1020.929700
 20
-127.559129
 30
0.0
 10
1020.249299
 20
-126.934835
 30
0.0
  0
SPLINE
  5
43f
100
AcDbEntity
  8
Calque_1
 62
1
100
AcDbSpline
 70
8
 71
3
 72
8
 73
4
 74
0
 40
0
 40
0
 40
0
 40
0
 40
1
 40
1
 40
1
 40
1
 10
1020.249299
 20
-126.934835
 30
0.0
 10
1019.610985
 20
-126.345634
 30
0.0
 10
1018.674437
 20
-126.051111
 30
0.0
 10
1017.439898
 20
-126.051111
 30
0.0
  0
LINE
  5
440
100
AcDbEntity
  8
Calque_1
 62
1
100
AcDbLine
 10
1017.439898
 20
-126.051111
 30
0.0
 11
1017.439898
 21
-126.051111
 31
0.0
  0
SPLINE
  5
441
100
AcDbEntity
  8
Calque_1
 62
1
100
AcDbSpline
 70
8
 71
3
 72
8
 73
4
 74
0
 40
0
 40
0
 40
0
 40
0
 40
1
 40
1
 40
1
 40
1
 10
1017.492631
 20
-128.124157
 30
0.0
 10
1019.230660
 20
-128.107591
 30
0.0
 10
1019.782896
 20
-129.932190
 30
0.0
 10
1018.734041
 20
-131.028225
 30
0.0
  0
SPLINE
  5
442
100
AcDbEntity
  8
Calque_1
 62
1
100
AcDbSpline
 70
8
 71
3
 72
8
 73
4
 74
0
 40
0
 40
0
 40
0
 40
0
 40
1
 40
1
 40
1
 40
1
 10
1018.734041
 20
-131.028225
 30
0.0
 10
1018.600783
 20
-131.154488
 30
0.0
 10
1018.369330
 20
-131.217559
 30
0.0
 10
1018.039651
 20
-131.217559
 30
0.0
  0
SPLINE
  5
443
100
AcDbEntity
  8
Calque_1
 62
1
100
AcDbSpline
 70
8
 71
3
 72
8
 73
4
 74
0
 40
0
 40
0
 40
0
 40
0
 40
1
 40
1
 40
1
 40
1
 10
1018.039651
 20
-131.217559
 30
0.0
 10
1016.924351
 20
-131.217559
 30
0.0
 10
1016.149252
 20
-130.975369
 30
0.0
 10
1015.714354
 20
-130.491389
 30
0.0
  0
SPLINE
  5
444
100
AcDbEntity
  8
Calque_1
 62
1
100
AcDbSpline
 70
8
 71
3
 72
8
 73
4
 74
0
 40
0
 40
0
 40
0
 40
0
 40
1
 40
1
 40
1
 40
1
 10
1015.714354
 20
-130.491389
 30
0.0
 10
1015.968384
 20
-129.411796
 30
0.0
 10
1016.193702
 20
-128.140323
 30
0.0
 10
1017.492631
 20
-128.124157
 30
0.0
  0
LINE
  5
445
100
AcDbEntity
  8
Calque_1
 62
1
100
AcDbLine
 10
1017.492631
 20
-128.124157
 30
0.0
 11
1017.492631
 21
-128.124157
 31
0.0
  0
SPLINE
  5
446
100
AcDbEntity
  8
Calque_1
 62
1
100
AcDbSpline
 70
8
 71
3
 72
8
 73
4
 74
0
 40
0
 40
0
 40
0
 40
0
 40
1
 40
1
 40
1
 40
1
 10
982.024307
 20
-134.163561
 30
0.0
 10
981.652325
 20
-134.535543
 30
0.0
 10
981.652325
 20
-135.369724
 30
0.0
 10
982.024307
 20
-135.741706
 30
0.0
  0
SPLINE
  5
447
100
AcDbEntity
  8
Calque_1
 62
1
100
AcDbSpline
 70
8
 71
3
 72
8
 73
4
 74
0
 40
0
 40
0
 40
0
 40
0
 40
1
 40
1
 40
1
 40
1
 10
982.024307
 20
-135.741706
 30
0.0
 10
982.396288
 20
-136.113687
 30
0.0
 10
983.230470
 20
-136.113687
 30
0.0
 10
983.602451
 20
-135.741706
 30
0.0
  0
SPLINE
  5
448
100
AcDbEntity
  8
Calque_1
 62
1
100
AcDbSpline
 70
8
 71
3
 72
8
 73
4
 74
0
 40
0
 40
0
 40
0
 40
0
 40
1
 40
1
 40
1
 40
1
 10
983.602451
 20
-135.741706
 30
0.0
 10
983.974432
 20
-135.369724
 30
0.0
 10
983.974432
 20
-134.535543
 30
0.0
 10
983.602451
 20
-134.163561
 30
0.0
  0
SPLINE
  5
449
100
AcDbEntity
  8
Calque_1
 62
1
100
AcDbSpline
 70
8
 71
3
 72
8
 73
4
 74
0
 40
0
 40
0
 40
0
 40
0
 40
1
 40
1
 40
1
 40
1
 10
983.602451
 20
-134.163561
 30
0.0
 10
983.230470
 20
-133.791580
 30
0.0
 10
982.396288
 20
-133.791580
 30
0.0
 10
982.024307
 20
-134.163561
 30
0.0
  0
LINE
  5
44a
100
AcDbEntity
  8
Calque_1
 62
1
100
AcDbLine
 10
982.024307
 20
-134.163561
 30
0.0
 11
982.024307
 21
-134.163561
 31
0.0
  0
LINE
  5
44b
100
AcDbEntity
  8
Calque_1
 62
1
100
AcDbLine
 10
637.419265
 20
10.983498
 30
0.0
 11
635.811925
 21
7.448580
 31
0.0
  0
SPLINE
  5
44c
100
AcDbEntity
  8
Calque_1
 62
1
100
AcDbSpline
 70
8
 71
3
 72
8
 73
4
 74
0
 40
0
 40
0
 40
0
 40
0
 40
1
 40
1
 40
1
 40
1
 10
635.811925
 20
7.448580
 30
0.0
 10
637.271183
 20
7.194692
 30
0.0
 10
638.675775
 20
6.938519
 30
0.0
 10
640.045823
 20
6.681838
 30
0.0
  0
SPLINE
  5
44d
100
AcDbEntity
  8
Calque_1
 62
1
100
AcDbSpline
 70
8
 71
3
 72
8
 73
4
 74
0
 40
0
 40
0
 40
0
 40
0
 40
1
 40
1
 40
1
 40
1
 10
640.045823
 20
6.681838
 30
0.0
 10
627.687594
 20
3.392256
 30
0.0
 10
610.492584
 20
-0.364884
 30
0.0
 10
600.363290
 20
0.999350
 30
0.0
  0
SPLINE
  5
44e
100
AcDbEntity
  8
Calque_1
 62
1
100
AcDbSpline
 70
8
 71
3
 72
8
 73
4
 74
0
 40
0
 40
0
 40
0
 40
0
 40
1
 40
1
 40
1
 40
1
 10
600.363290
 20
0.999350
 30
0.0
 10
586.906963
 20
3.120391
 30
0.0
 10
577.191830
 20
7.437996
 30
0.0
 10
571.258559
 20
7.955676
 30
0.0
  0
SPLINE
  5
44f
100
AcDbEntity
  8
Calque_1
 62
1
100
AcDbSpline
 70
8
 71
3
 72
8
 73
4
 74
0
 40
0
 40
0
 40
0
 40
0
 40
1
 40
1
 40
1
 40
1
 10
571.258559
 20
7.955676
 30
0.0
 10
569.775255
 20
8.085104
 30
0.0
 10
568.478501
 20
8.048866
 30
0.0
 10
567.315717
 20
7.453518
 30
0.0
  0
SPLINE
  5
450
100
AcDbEntity
  8
Calque_1
 62
1
100
AcDbSpline
 70
8
 71
3
 72
8
 73
4
 74
0
 40
0
 40
0
 40
0
 40
0
 40
1
 40
1
 40
1
 40
1
 10
567.315717
 20
7.453518
 30
0.0
 10
566.152961
 20
6.858171
 30
0.0
 10
565.391498
 20
5.534069
 30
0.0
 10
565.313153
 20
4.158913
 30
0.0
  0
SPLINE
  5
451
100
AcDbEntity
  8
Calque_1
 62
1
100
AcDbSpline
 70
8
 71
3
 72
8
 73
4
 74
0
 40
0
 40
0
 40
0
 40
0
 40
1
 40
1
 40
1
 40
1
 10
565.313153
 20
4.158913
 30
0.0
 10
565.156463
 20
1.408601
 30
0.0
 10
566.592635
 20
-2.053081
 30
0.0
 10
569.454425
 20
-7.654176
 30
0.0
  0
SPLINE
  5
452
100
AcDbEntity
  8
Calque_1
 62
1
100
AcDbSpline
 70
8
 71
3
 72
8
 73
4
 74
0
 40
0
 40
0
 40
0
 40
0
 40
1
 40
1
 40
1
 40
1
 10
569.454425
 20
-7.654176
 30
0.0
 10
574.961032
 20
-18.431706
 30
0.0
 10
575.619372
 20
-28.528150
 30
0.0
 10
574.342599
 20
-35.837818
 30
0.0
  0
SPLINE
  5
453
100
AcDbEntity
  8
Calque_1
 62
1
100
AcDbSpline
 70
8
 71
3
 72
8
 73
4
 74
0
 40
0
 40
0
 40
0
 40
0
 40
1
 40
1
 40
1
 40
1
 10
574.342599
 20
-35.837818
 30
0.0
 10
573.354567
 20
-39.562164
 30
0.0
 10
572.475219
 20
-44.459199
 30
0.0
 10
569.694201
 20
-46.849452
 30
0.0
  0
SPLINE
  5
454
100
AcDbEntity
  8
Calque_1
 62
1
100
AcDbSpline
 70
8
 71
3
 72
8
 73
4
 74
0
 40
0
 40
0
 40
0
 40
0
 40
1
 40
1
 40
1
 40
1
 10
569.694201
 20
-46.849452
 30
0.0
 10
568.814035
 20
-47.586588
 30
0.0
 10
566.365249
 20
-47.035832
 30
0.0
 10
566.050684
 20
-45.261952
 30
0.0
  0
SPLINE
  5
455
100
AcDbEntity
  8
Calque_1
 62
1
100
AcDbSpline
 70
8
 71
3
 72
8
 73
4
 74
0
 40
0
 40
0
 40
0
 40
0
 40
1
 40
1
 40
1
 40
1
 10
566.050684
 20
-45.261952
 30
0.0
 10
565.736119
 20
-43.488072
 30
0.0
 10
567.106506
 20
-42.404960
 30
0.0
 10
567.923172
 20
-41.496600
 30
0.0
  0
SPLINE
  5
456
100
AcDbEntity
  8
Calque_1
 62
1
100
AcDbSpline
 70
8
 71
3
 72
8
 73
4
 74
0
 40
0
 40
0
 40
0
 40
0
 40
1
 40
1
 40
1
 40
1
 10
567.923172
 20
-41.496600
 30
0.0
 10
566.904434
 20
-40.449188
 30
0.0
 10
566.285803
 20
-40.971553
 30
0.0
 10
565.114158
 20
-39.508372
 30
0.0
  0
SPLINE
  5
457
100
AcDbEntity
  8
Calque_1
 62
1
100
AcDbSpline
 70
8
 71
3
 72
8
 73
4
 74
0
 40
0
 40
0
 40
0
 40
0
 40
1
 40
1
 40
1
 40
1
 10
565.114158
 20
-39.508372
 30
0.0
 10
563.549969
 20
-41.370841
 30
0.0
 10
562.681487
 20
-43.652608
 30
0.0
 10
563.106090
 20
-45.835202
 30
0.0
  0
SPLINE
  5
458
100
AcDbEntity
  8
Calque_1
 62
1
100
AcDbSpline
 70
8
 71
3
 72
8
 73
4
 74
0
 40
0
 40
0
 40
0
 40
0
 40
1
 40
1
 40
1
 40
1
 10
563.106090
 20
-45.835202
 30
0.0
 10
563.530694
 20
-48.017824
 30
0.0
 10
565.613945
 20
-49.777028
 30
0.0
 10
568.555406
 20
-49.923586
 30
0.0
  0
SPLINE
  5
459
100
AcDbEntity
  8
Calque_1
 62
1
100
AcDbSpline
 70
8
 71
3
 72
8
 73
4
 74
0
 40
0
 40
0
 40
0
 40
0
 40
1
 40
1
 40
1
 40
1
 10
568.555406
 20
-49.923586
 30
0.0
 10
569.677494
 20
-49.979466
 30
0.0
 10
570.687736
 20
-49.493648
 30
0.0
 10
571.558420
 20
-48.790830
 30
0.0
  0
SPLINE
  5
45a
100
AcDbEntity
  8
Calque_1
 62
1
100
AcDbSpline
 70
8
 71
3
 72
8
 73
4
 74
0
 40
0
 40
0
 40
0
 40
0
 40
1
 40
1
 40
1
 40
1
 10
571.558420
 20
-48.790830
 30
0.0
 10
572.429104
 20
-48.087984
 30
0.0
 10
573.210803
 20
-47.132154
 30
0.0
 10
573.936368
 20
-45.953171
 30
0.0
  0
SPLINE
  5
45b
100
AcDbEntity
  8
Calque_1
 62
1
100
AcDbSpline
 70
8
 71
3
 72
8
 73
4
 74
0
 40
0
 40
0
 40
0
 40
0
 40
1
 40
1
 40
1
 40
1
 10
573.936368
 20
-45.953171
 30
0.0
 10
575.387470
 20
-43.595232
 30
0.0
 10
576.603989
 20
-40.325152
 30
0.0
 10
577.297691
 20
-36.353749
 30
0.0
  0
SPLINE
  5
45c
100
AcDbEntity
  8
Calque_1
 62
1
100
AcDbSpline
 70
8
 71
3
 72
8
 73
4
 74
0
 40
0
 40
0
 40
0
 40
0
 40
1
 40
1
 40
1
 40
1
 10
577.297691
 20
-36.353749
 30
0.0
 10
578.685039
 20
-28.410971
 30
0.0
 10
577.068611
 20
-17.971176
 30
0.0
 10
571.260760
 20
-6.604112
 30
0.0
  0
SPLINE
  5
45d
100
AcDbEntity
  8
Calque_1
 62
1
100
AcDbSpline
 70
8
 71
3
 72
8
 73
4
 74
0
 40
0
 40
0
 40
0
 40
0
 40
1
 40
1
 40
1
 40
1
 10
571.260760
 20
-6.604112
 30
0.0
 10
568.465321
 20
-1.132895
 30
0.0
 10
568.114970
 20
2.082576
 30
0.0
 10
568.189957
 20
3.398775
 30
0.0
  0
SPLINE
  5
45e
100
AcDbEntity
  8
Calque_1
 62
1
100
AcDbSpline
 70
8
 71
3
 72
8
 73
4
 74
0
 40
0
 40
0
 40
0
 40
0
 40
1
 40
1
 40
1
 40
1
 10
568.189957
 20
3.398775
 30
0.0
 10
568.227436
 20
4.056861
 30
0.0
 10
568.834101
 20
5.359768
 30
0.0
 10
570.727755
 20
5.648848
 30
0.0
  0
SPLINE
  5
45f
100
AcDbEntity
  8
Calque_1
 62
1
100
AcDbSpline
 70
8
 71
3
 72
8
 73
4
 74
0
 40
0
 40
0
 40
0
 40
0
 40
1
 40
1
 40
1
 40
1
 10
570.727755
 20
5.648848
 30
0.0
 10
572.621382
 20
5.937900
 30
0.0
 10
590.484609
 20
0.195384
 30
0.0
 10
600.243656
 20
-0.857136
 30
0.0
  0
SPLINE
  5
460
100
AcDbEntity
  8
Calque_1
 62
1
100
AcDbSpline
 70
8
 71
3
 72
8
 73
4
 74
0
 40
0
 40
0
 40
0
 40
0
 40
1
 40
1
 40
1
 40
1
 10
600.243656
 20
-0.857136
 30
0.0
 10
615.824185
 20
-2.373459
 30
0.0
 10
626.261977
 20
1.415515
 30
0.0
 10
646.092095
 20
5.491199
 30
0.0
  0
SPLINE
  5
461
100
AcDbEntity
  8
Calque_1
 62
1
100
AcDbSpline
 70
8
 71
3
 72
8
 73
4
 74
0
 40
0
 40
0
 40
0
 40
0
 40
1
 40
1
 40
1
 40
1
 10
646.092095
 20
5.491199
 30
0.0
 10
665.922242
 20
1.415515
 30
0.0
 10
676.360034
 20
-2.373459
 30
0.0
 10
691.940518
 20
-0.857136
 30
0.0
  0
SPLINE
  5
462
100
AcDbEntity
  8
Calque_1
 62
1
100
AcDbSpline
 70
8
 71
3
 72
8
 73
4
 74
0
 40
0
 40
0
 40
0
 40
0
 40
1
 40
1
 40
1
 40
1
 10
691.940518
 20
-0.857136
 30
0.0
 10
701.699593
 20
0.195384
 30
0.0
 10
719.562820
 20
5.937900
 30
0.0
 10
721.456447
 20
5.648848
 30
0.0
  0
SPLINE
  5
463
100
AcDbEntity
  8
Calque_1
 62
1
100
AcDbSpline
 70
8
 71
3
 72
8
 73
4
 74
0
 40
0
 40
0
 40
0
 40
0
 40
1
 40
1
 40
1
 40
1
 10
721.456447
 20
5.648848
 30
0.0
 10
723.350073
 20
5.359768
 30
0.0
 10
723.956738
 20
4.056861
 30
0.0
 10
723.994245
 20
3.398775
 30
0.0
  0
SPLINE
  5
464
100
AcDbEntity
  8
Calque_1
 62
1
100
AcDbSpline
 70
8
 71
3
 72
8
 73
4
 74
0
 40
0
 40
0
 40
0
 40
0
 40
1
 40
1
 40
1
 40
1
 10
723.994245
 20
3.398775
 30
0.0
 10
724.069232
 20
2.082576
 30
0.0
 10
723.718853
 20
-1.132895
 30
0.0
 10
720.923414
 20
-6.604112
 30
0.0
  0
SPLINE
  5
465
100
AcDbEntity
  8
Calque_1
 62
1
100
AcDbSpline
 70
8
 71
3
 72
8
 73
4
 74
0
 40
0
 40
0
 40
0
 40
0
 40
1
 40
1
 40
1
 40
1
 10
720.923414
 20
-6.604112
 30
0.0
 10
715.115562
 20
-17.971176
 30
0.0
 10
713.499163
 20
-28.410971
 30
0.0
 10
714.886511
 20
-36.353749
 30
0.0
  0
SPLINE
  5
466
100
AcDbEntity
  8
Calque_1
 62
1
100
AcDbSpline
 70
8
 71
3
 72
8
 73
4
 74
0
 40
0
 40
0
 40
0
 40
0
 40
1
 40
1
 40
1
 40
1
 10
714.886511
 20
-36.353749
 30
0.0
 10
715.580185
 20
-40.325152
 30
0.0
 10
716.796704
 20
-43.595232
 30
0.0
 10
718.247806
 20
-45.953171
 30
0.0
  0
SPLINE
  5
467
100
AcDbEntity
  8
Calque_1
 62
1
100
AcDbSpline
 70
8
 71
3
 72
8
 73
4
 74
0
 40
0
 40
0
 40
0
 40
0
 40
1
 40
1
 40
1
 40
1
 10
718.247806
 20
-45.953171
 30
0.0
 10
718.973371
 20
-47.132154
 30
0.0
 10
719.755070
 20
-48.087984
 30
0.0
 10
720.625754
 20
-48.790830
 30
0.0
  0
SPLINE
  5
468
100
AcDbEntity
  8
Calque_1
 62
1
100
AcDbSpline
 70
8
 71
3
 72
8
 73
4
 74
0
 40
0
 40
0
 40
0
 40
0
 40
1
 40
1
 40
1
 40
1
 10
720.625754
 20
-48.790830
 30
0.0
 10
721.496438
 20
-49.493648
 30
0.0
 10
722.506680
 20
-49.979466
 30
0.0
 10
723.628768
 20
-49.923586
 30
0.0
  0
SPLINE
  5
469
100
AcDbEntity
  8
Calque_1
 62
1
100
AcDbSpline
 70
8
 71
3
 72
8
 73
4
 74
0
 40
0
 40
0
 40
0
 40
0
 40
1
 40
1
 40
1
 40
1
 10
723.628768
 20
-49.923586
 30
0.0
 10
726.570229
 20
-49.777028
 30
0.0
 10
728.653480
 20
-48.017824
 30
0.0
 10
729.078084
 20
-45.835202
 30
0.0
  0
SPLINE
  5
46a
100
AcDbEntity
  8
Calque_1
 62
1
100
AcDbSpline
 70
8
 71
3
 72
8
 73
4
 74
0
 40
0
 40
0
 40
0
 40
0
 40
1
 40
1
 40
1
 40
1
 10
729.078084
 20
-45.835202
 30
0.0
 10
729.502687
 20
-43.652608
 30
0.0
 10
728.634204
 20
-41.370841
 30
0.0
 10
727.070016
 20
-39.508372
 30
0.0
  0
SPLINE
  5
46b
100
AcDbEntity
  8
Calque_1
 62
1
100
AcDbSpline
 70
8
 71
3
 72
8
 73
4
 74
0
 40
0
 40
0
 40
0
 40
0
 40
1
 40
1
 40
1
 40
1
 10
727.070016
 20
-39.508372
 30
0.0
 10
725.898370
 20
-40.971553
 30
0.0
 10
725.280304
 20
-40.449188
 30
0.0
 10
724.261566
 20
-41.496600
 30
0.0
  0
SPLINE
  5
46c
100
AcDbEntity
  8
Calque_1
 62
1
100
AcDbSpline
 70
8
 71
3
 72
8
 73
4
 74
0
 40
0
 40
0
 40
0
 40
0
 40
1
 40
1
 40
1
 40
1
 10
724.261566
 20
-41.496600
 30
0.0
 10
725.078204
 20
-42.404960
 30
0.0
 10
726.448055
 20
-43.488072
 30
0.0
 10
726.133490
 20
-45.261952
 30
0.0
  0
SPLINE
  5
46d
100
AcDbEntity
  8
Calque_1
 62
1
100
AcDbSpline
 70
8
 71
3
 72
8
 73
4
 74
0
 40
0
 40
0
 40
0
 40
0
 40
1
 40
1
 40
1
 40
1
 10
726.133490
 20
-45.261952
 30
0.0
 10
725.818953
 20
-47.035832
 30
0.0
 10
723.370139
 20
-47.586588
 30
0.0
 10
722.489973
 20
-46.849452
 30
0.0
  0
SPLINE
  5
46e
100
AcDbEntity
  8
Calque_1
 62
1
100
AcDbSpline
 70
8
 71
3
 72
8
 73
4
 74
0
 40
0
 40
0
 40
0
 40
0
 40
1
 40
1
 40
1
 40
1
 10
722.489973
 20
-46.849452
 30
0.0
 10
719.708955
 20
-44.459199
 30
0.0
 10
718.829635
 20
-39.562164
 30
0.0
 10
717.841575
 20
-35.837818
 30
0.0
  0
SPLINE
  5
46f
100
AcDbEntity
  8
Calque_1
 62
1
100
AcDbSpline
 70
8
 71
3
 72
8
 73
4
 74
0
 40
0
 40
0
 40
0
 40
0
 40
1
 40
1
 40
1
 40
1
 10
717.841575
 20
-35.837818
 30
0.0
 10
716.564802
 20
-28.528150
 30
0.0
 10
717.223142
 20
-18.431706
 30
0.0
 10
722.729749
 20
-7.654176
 30
0.0
  0
SPLINE
  5
470
100
AcDbEntity
  8
Calque_1
 62
1
100
AcDbSpline
 70
8
 71
3
 72
8
 73
4
 74
0
 40
0
 40
0
 40
0
 40
0
 40
1
 40
1
 40
1
 40
1
 10
722.729749
 20
-7.654176
 30
0.0
 10
725.591538
 20
-2.053081
 30
0.0
 10
727.027711
 20
1.408601
 30
0.0
 10
726.871021
 20
4.158913
 30
0.0
  0
SPLINE
  5
471
100
AcDbEntity
  8
Calque_1
 62
1
100
AcDbSpline
 70
8
 71
3
 72
8
 73
4
 74
0
 40
0
 40
0
 40
0
 40
0
 40
1
 40
1
 40
1
 40
1
 10
726.871021
 20
4.158913
 30
0.0
 10
726.792676
 20
5.534069
 30
0.0
 10
726.031241
 20
6.858171
 30
0.0
 10
724.868457
 20
7.453518
 30
0.0
  0
SPLINE
  5
472
100
AcDbEntity
  8
Calque_1
 62
1
100
AcDbSpline
 70
8
 71
3
 72
8
 73
4
 74
0
 40
0
 40
0
 40
0
 40
0
 40
1
 40
1
 40
1
 40
1
 10
724.868457
 20
7.453518
 30
0.0
 10
723.705701
 20
8.048866
 30
0.0
 10
722.408947
 20
8.085104
 30
0.0
 10
720.925615
 20
7.955676
 30
0.0
  0
SPLINE
  5
473
100
AcDbEntity
  8
Calque_1
 62
1
100
AcDbSpline
 70
8
 71
3
 72
8
 73
4
 74
0
 40
0
 40
0
 40
0
 40
0
 40
1
 40
1
 40
1
 40
1
 10
720.925615
 20
7.955676
 30
0.0
 10
714.992344
 20
7.437996
 30
0.0
 10
705.277239
 20
3.120391
 30
0.0
 10
691.820912
 20
0.999350
 30
0.0
  0
SPLINE
  5
474
100
AcDbEntity
  8
Calque_1
 62
1
100
AcDbSpline
 70
8
 71
3
 72
8
 73
4
 74
0
 40
0
 40
0
 40
0
 40
0
 40
1
 40
1
 40
1
 40
1
 10
691.820912
 20
0.999350
 30
0.0
 10
681.691590
 20
-0.364884
 30
0.0
 10
664.496597
 20
3.392256
 30
0.0
 10
652.138368
 20
6.681838
 30
0.0
  0
SPLINE
  5
475
100
AcDbEntity
  8
Calque_1
 62
1
100
AcDbSpline
 70
8
 71
3
 72
8
 73
4
 74
0
 40
0
 40
0
 40
0
 40
0
 40
1
 40
1
 40
1
 40
1
 10
652.138368
 20
6.681838
 30
0.0
 10
653.508416
 20
6.938519
 30
0.0
 10
654.913036
 20
7.194692
 30
0.0
 10
656.372266
 20
7.448580
 30
0.0
  0
LINE
  5
476
100
AcDbEntity
  8
Calque_1
 62
1
100
AcDbLine
 10
656.372266
 20
7.448580
 30
0.0
 11
654.764925
 21
10.983498
 31
0.0
  0
SPLINE
  5
477
100
AcDbEntity
  8
Calque_1
 62
1
100
AcDbSpline
 70
8
 71
3
 72
8
 73
4
 74
0
 40
0
 40
0
 40
0
 40
0
 40
1
 40
1
 40
1
 40
1
 10
654.764925
 20
10.983498
 30
0.0
 10
654.764925
 20
10.983498
 30
0.0
 10
651.322209
 20
9.853339
 30
0.0
 10
646.092095
 20
8.350364
 30
0.0
  0
SPLINE
  5
478
100
AcDbEntity
  8
Calque_1
 62
1
100
AcDbSpline
 70
8
 71
3
 72
8
 73
4
 74
0
 40
0
 40
0
 40
0
 40
0
 40
1
 40
1
 40
1
 40
1
 10
646.092095
 20
8.350364
 30
0.0
 10
640.862010
 20
9.853339
 30
0.0
 10
637.419265
 20
10.983498
 30
0.0
 10
637.419265
 20
10.983498
 30
0.0
  0
LINE
  5
479
100
AcDbEntity
  8
Calque_1
 62
1
100
AcDbLine
 10
637.419265
 20
10.983498
 30
0.0
 11
637.419265
 21
10.983498
 31
0.0
  0
SPLINE
  5
47a
100
AcDbEntity
  8
Calque_1
 62
1
100
AcDbSpline
 70
8
 71
3
 72
8
 73
4
 74
0
 40
0
 40
0
 40
0
 40
0
 40
1
 40
1
 40
1
 40
1
 10
906.839566
 20
-107.450973
 30
0.0
 10
906.821504
 20
-108.088683
 30
0.0
 10
907.144055
 20
-109.339746
 30
0.0
 10
907.613786
 20
-109.666756
 30
0.0
  0
SPLINE
  5
47b
100
AcDbEntity
  8
Calque_1
 62
1
100
AcDbSpline
 70
8
 71
3
 72
8
 73
4
 74
0
 40
0
 40
0
 40
0
 40
0
 40
1
 40
1
 40
1
 40
1
 10
907.613786
 20
-109.666756
 30
0.0
 10
908.114843
 20
-110.015527
 30
0.0
 10
910.182573
 20
-109.362069
 30
0.0
 10
911.132589
 20
-109.376519
 30
0.0
  0
SPLINE
  5
47c
100
AcDbEntity
  8
Calque_1
 62
1
100
AcDbSpline
 70
8
 71
3
 72
8
 73
4
 74
0
 40
0
 40
0
 40
0
 40
0
 40
1
 40
1
 40
1
 40
1
 10
911.132589
 20
-109.376519
 30
0.0
 10
912.082606
 20
-109.390912
 30
0.0
 10
914.633979
 20
-109.729636
 30
0.0
 10
914.769728
 20
-109.677566
 30
0.0
  0
SPLINE
  5
47d
100
AcDbEntity
  8
Calque_1
 62
1
100
AcDbSpline
 70
8
 71
3
 72
8
 73
4
 74
0
 40
0
 40
0
 40
0
 40
0
 40
1
 40
1
 40
1
 40
1
 10
914.769728
 20
-109.677566
 30
0.0
 10
915.172064
 20
-109.503096
 30
0.0
 10
915.165968
 20
-108.637464
 30
0.0
 10
914.967735
 20
-107.018637
 30
0.0
  0
SPLINE
  5
47e
100
AcDbEntity
  8
Calque_1
 62
1
100
AcDbSpline
 70
8
 71
3
 72
8
 73
4
 74
0
 40
0
 40
0
 40
0
 40
0
 40
1
 40
1
 40
1
 40
1
 10
914.967735
 20
-107.018637
 30
0.0
 10
914.867716
 20
-106.716067
 30
0.0
 10
911.833432
 20
-107.283474
 30
0.0
 10
908.767482
 20
-106.686349
 30
0.0
  0
SPLINE
  5
47f
100
AcDbEntity
  8
Calque_1
 62
1
100
AcDbSpline
 70
8
 71
3
 72
8
 73
4
 74
0
 40
0
 40
0
 40
0
 40
0
 40
1
 40
1
 40
1
 40
1
 10
908.767482
 20
-106.686349
 30
0.0
 10
907.608170
 20
-106.460571
 30
0.0
 10
906.916161
 20
-106.746349
 30
0.0
 10
906.847666
 20
-107.332017
 30
0.0
  0
SPLINE
  5
480
100
AcDbEntity
  8
Calque_1
 62
1
100
AcDbSpline
 70
8
 71
3
 72
8
 73
4
 74
0
 40
0
 40
0
 40
0
 40
0
 40
1
 40
1
 40
1
 40
1
 10
906.847666
 20
-107.332017
 30
0.0
 10
906.843432
 20
-107.368593
 30
0.0
 10
906.840892
 20
-107.408471
 30
0.0
 10
906.839481
 20
-107.450973
 30
0.0
  0
LINE
  5
481
100
AcDbEntity
  8
Calque_1
 62
1
100
AcDbLine
 10
906.839481
 20
-107.450973
 30
0.0
 11
906.839566
 21
-107.450973
 31
0.0
  0
SPLINE
  5
482
100
AcDbEntity
  8
Calque_1
 62
1
100
AcDbSpline
 70
8
 71
3
 72
8
 73
4
 74
0
 40
0
 40
0
 40
0
 40
0
 40
1
 40
1
 40
1
 40
1
 10
985.430346
 20
-42.095384
 30
0.0
 10
985.565690
 20
-42.070769
 30
0.0
 10
985.676420
 20
-42.064633
 30
0.0
 10
985.762535
 20
-42.076929
 30
0.0
  0
SPLINE
  5
483
100
AcDbEntity
  8
Calque_1
 62
1
100
AcDbSpline
 70
8
 71
3
 72
8
 73
4
 74
0
 40
0
 40
0
 40
0
 40
0
 40
1
 40
1
 40
1
 40
1
 10
985.762535
 20
-42.076929
 30
0.0
 10
985.963418
 20
-42.100920
 30
0.0
 10
985.960465
 20
-42.200162
 30
0.0
 10
986.002450
 20
-42.316844
 30
0.0
  0
SPLINE
  5
484
100
AcDbEntity
  8
Calque_1
 62
1
100
AcDbSpline
 70
8
 71
3
 72
8
 73
4
 74
0
 40
0
 40
0
 40
0
 40
0
 40
1
 40
1
 40
1
 40
1
 10
986.002450
 20
-42.316844
 30
0.0
 10
985.830196
 20
-42.722854
 30
0.0
 10
985.725625
 20
-43.196524
 30
0.0
 10
985.688715
 20
-43.737878
 30
0.0
  0
SPLINE
  5
485
100
AcDbEntity
  8
Calque_1
 62
1
100
AcDbSpline
 70
8
 71
3
 72
8
 73
4
 74
0
 40
0
 40
0
 40
0
 40
0
 40
1
 40
1
 40
1
 40
1
 10
985.688715
 20
-43.737878
 30
0.0
 10
985.664101
 20
-44.106978
 30
0.0
 10
985.621055
 20
-44.346893
 30
0.0
 10
985.559530
 20
-44.457623
 30
0.0
  0
SPLINE
  5
486
100
AcDbEntity
  8
Calque_1
 62
1
100
AcDbSpline
 70
8
 71
3
 72
8
 73
4
 74
0
 40
0
 40
0
 40
0
 40
0
 40
1
 40
1
 40
1
 40
1
 10
985.559530
 20
-44.457623
 30
0.0
 10
985.510325
 20
-44.568353
 30
0.0
 10
985.399595
 20
-44.623718
 30
0.0
 10
985.227341
 20
-44.623718
 30
0.0
  0
SPLINE
  5
487
100
AcDbEntity
  8
Calque_1
 62
1
100
AcDbSpline
 70
8
 71
3
 72
8
 73
4
 74
0
 40
0
 40
0
 40
0
 40
0
 40
1
 40
1
 40
1
 40
1
 10
985.227341
 20
-44.623718
 30
0.0
 10
985.079701
 20
-44.623718
 30
0.0
 10
984.833626
 20
-44.549898
 30
0.0
 10
984.489141
 20
-44.402258
 30
0.0
  0
SPLINE
  5
488
100
AcDbEntity
  8
Calque_1
 62
1
100
AcDbSpline
 70
8
 71
3
 72
8
 73
4
 74
0
 40
0
 40
0
 40
0
 40
0
 40
1
 40
1
 40
1
 40
1
 10
984.489141
 20
-44.402258
 30
0.0
 10
984.267681
 20
-44.291528
 30
0.0
 10
983.929331
 20
-44.168503
 30
0.0
 10
983.474116
 20
-44.033158
 30
0.0
  0
SPLINE
  5
489
100
AcDbEntity
  8
Calque_1
 62
1
100
AcDbSpline
 70
8
 71
3
 72
8
 73
4
 74
0
 40
0
 40
0
 40
0
 40
0
 40
1
 40
1
 40
1
 40
1
 10
983.474116
 20
-44.033158
 30
0.0
 10
983.018900
 20
-43.885518
 30
0.0
 10
982.649800
 20
-43.787084
 30
0.0
 10
982.366816
 20
-43.737878
 30
0.0
  0
LINE
  5
48a
100
AcDbEntity
  8
Calque_1
 62
1
100
AcDbLine
 10
982.366816
 20
-43.737878
 30
0.0
 11
982.200721
 21
-43.700968
 31
0.0
  0
LINE
  5
48b
100
AcDbEntity
  8
Calque_1
 62
1
100
AcDbLine
 10
982.200721
 20
-43.700968
 30
0.0
 11
981.923896
 21
-44.531443
 31
0.0
  0
SPLINE
  5
48c
100
AcDbEntity
  8
Calque_1
 62
1
100
AcDbSpline
 70
8
 71
3
 72
8
 73
4
 74
0
 40
0
 40
0
 40
0
 40
0
 40
1
 40
1
 40
1
 40
1
 10
981.923896
 20
-44.531443
 30
0.0
 10
981.739346
 20
-45.122003
 30
0.0
 10
981.610161
 20
-45.564923
 30
0.0
 10
981.536341
 20
-45.860203
 30
0.0
  0
SPLINE
  5
48d
100
AcDbEntity
  8
Calque_1
 62
1
100
AcDbSpline
 70
8
 71
3
 72
8
 73
4
 74
0
 40
0
 40
0
 40
0
 40
0
 40
1
 40
1
 40
1
 40
1
 10
981.536341
 20
-45.860203
 30
0.0
 10
981.142627
 20
-47.570358
 30
0.0
 10
980.958077
 20
-48.443903
 30
0.0
 10
980.982691
 20
-48.480813
 30
0.0
  0
SPLINE
  5
48e
100
AcDbEntity
  8
Calque_1
 62
1
100
AcDbSpline
 70
8
 71
3
 72
8
 73
4
 74
0
 40
0
 40
0
 40
0
 40
0
 40
1
 40
1
 40
1
 40
1
 10
980.982691
 20
-48.480813
 30
0.0
 10
980.994918
 20
-48.493039
 30
0.0
 10
981.253357
 20
-48.382378
 30
0.0
 10
981.757801
 20
-48.148623
 30
0.0
  0
SPLINE
  5
48f
100
AcDbEntity
  8
Calque_1
 62
1
100
AcDbSpline
 70
8
 71
3
 72
8
 73
4
 74
0
 40
0
 40
0
 40
0
 40
0
 40
1
 40
1
 40
1
 40
1
 10
981.757801
 20
-48.148623
 30
0.0
 10
983.738645
 20
-47.238169
 30
0.0
 10
984.821331
 20
-46.807567
 30
0.0
 10
985.005881
 20
-46.856773
 30
0.0
  0
SPLINE
  5
490
100
AcDbEntity
  8
Calque_1
 62
1
100
AcDbSpline
 70
8
 71
3
 72
8
 73
4
 74
0
 40
0
 40
0
 40
0
 40
0
 40
1
 40
1
 40
1
 40
1
 10
985.005881
 20
-46.856773
 30
0.0
 10
985.067405
 20
-46.868999
 30
0.0
 10
985.110451
 20
-46.967503
 30
0.0
 10
985.135066
 20
-47.152053
 30
0.0
  0
SPLINE
  5
491
100
AcDbEntity
  8
Calque_1
 62
1
100
AcDbSpline
 70
8
 71
3
 72
8
 73
4
 74
0
 40
0
 40
0
 40
0
 40
0
 40
1
 40
1
 40
1
 40
1
 10
985.135066
 20
-47.152053
 30
0.0
 10
985.171976
 20
-47.324307
 30
0.0
 10
985.171976
 20
-47.471947
 30
0.0
 10
985.135066
 20
-47.594973
 30
0.0
  0
SPLINE
  5
492
100
AcDbEntity
  8
Calque_1
 62
1
100
AcDbSpline
 70
8
 71
3
 72
8
 73
4
 74
0
 40
0
 40
0
 40
0
 40
0
 40
1
 40
1
 40
1
 40
1
 10
985.135066
 20
-47.594973
 30
0.0
 10
985.098156
 20
-47.693407
 30
0.0
 10
985.061246
 20
-47.921003
 30
0.0
 10
985.024336
 20
-48.277808
 30
0.0
  0
SPLINE
  5
493
100
AcDbEntity
  8
Calque_1
 62
1
100
AcDbSpline
 70
8
 71
3
 72
8
 73
4
 74
0
 40
0
 40
0
 40
0
 40
0
 40
1
 40
1
 40
1
 40
1
 10
985.024336
 20
-48.277808
 30
0.0
 10
984.987426
 20
-48.856072
 30
0.0
 10
984.876696
 20
-49.169807
 30
0.0
 10
984.692146
 20
-49.219013
 30
0.0
  0
SPLINE
  5
494
100
AcDbEntity
  8
Calque_1
 62
1
100
AcDbSpline
 70
8
 71
3
 72
8
 73
4
 74
0
 40
0
 40
0
 40
0
 40
0
 40
1
 40
1
 40
1
 40
1
 10
984.692146
 20
-49.219013
 30
0.0
 10
984.581416
 20
-49.231239
 30
0.0
 10
984.323046
 20
-49.188262
 30
0.0
 10
983.917036
 20
-49.089828
 30
0.0
  0
SPLINE
  5
495
100
AcDbEntity
  8
Calque_1
 62
1
100
AcDbSpline
 70
8
 71
3
 72
8
 73
4
 74
0
 40
0
 40
0
 40
0
 40
0
 40
1
 40
1
 40
1
 40
1
 10
983.917036
 20
-49.089828
 30
0.0
 10
983.511026
 20
-48.991393
 30
0.0
 10
983.172676
 20
-48.954483
 30
0.0
 10
982.902011
 20
-48.979098
 30
0.0
  0
SPLINE
  5
496
100
AcDbEntity
  8
Calque_1
 62
1
100
AcDbSpline
 70
8
 71
3
 72
8
 73
4
 74
0
 40
0
 40
0
 40
0
 40
0
 40
1
 40
1
 40
1
 40
1
 10
982.902011
 20
-48.979098
 30
0.0
 10
982.409885
 20
-49.016008
 30
0.0
 10
981.960806
 20
-49.089828
 30
0.0
 10
981.554796
 20
-49.200558
 30
0.0
  0
SPLINE
  5
497
100
AcDbEntity
  8
Calque_1
 62
1
100
AcDbSpline
 70
8
 71
3
 72
8
 73
4
 74
0
 40
0
 40
0
 40
0
 40
0
 40
1
 40
1
 40
1
 40
1
 10
981.554796
 20
-49.200558
 30
0.0
 10
981.161082
 20
-49.298992
 30
0.0
 10
980.921167
 20
-49.403563
 30
0.0
 10
980.835051
 20
-49.514293
 30
0.0
  0
SPLINE
  5
498
100
AcDbEntity
  8
Calque_1
 62
1
100
AcDbSpline
 70
8
 71
3
 72
8
 73
4
 74
0
 40
0
 40
0
 40
0
 40
0
 40
1
 40
1
 40
1
 40
1
 10
980.835051
 20
-49.514293
 30
0.0
 10
980.662797
 20
-49.698843
 30
0.0
 10
980.539771
 20
-50.793847
 30
0.0
 10
980.465951
 20
-52.799282
 30
0.0
  0
LINE
  5
499
100
AcDbEntity
  8
Calque_1
 62
1
100
AcDbLine
 10
980.465951
 20
-52.799282
 30
0.0
 11
980.429041
 21
-53.814307
 31
0.0
  0
LINE
  5
49a
100
AcDbEntity
  8
Calque_1
 62
1
100
AcDbLine
 10
980.429041
 20
-53.814307
 30
0.0
 11
982.089991
 21
-53.777397
 31
0.0
  0
SPLINE
  5
49b
100
AcDbEntity
  8
Calque_1
 62
1
100
AcDbSpline
 70
8
 71
3
 72
8
 73
4
 74
0
 40
0
 40
0
 40
0
 40
0
 40
1
 40
1
 40
1
 40
1
 10
982.089991
 20
-53.777397
 30
0.0
 10
983.000445
 20
-53.752783
 30
0.0
 10
983.652506
 20
-53.715873
 30
0.0
 10
984.046221
 20
-53.666667
 30
0.0
  0
SPLINE
  5
49c
100
AcDbEntity
  8
Calque_1
 62
1
100
AcDbSpline
 70
8
 71
3
 72
8
 73
4
 74
0
 40
0
 40
0
 40
0
 40
0
 40
1
 40
1
 40
1
 40
1
 10
984.046221
 20
-53.666667
 30
0.0
 10
984.439935
 20
-53.617461
 30
0.0
 10
985.018176
 20
-53.500572
 30
0.0
 10
985.780990
 20
-53.316022
 30
0.0
  0
SPLINE
  5
49d
100
AcDbEntity
  8
Calque_1
 62
1
100
AcDbSpline
 70
8
 71
3
 72
8
 73
4
 74
0
 40
0
 40
0
 40
0
 40
0
 40
1
 40
1
 40
1
 40
1
 10
985.780990
 20
-53.316022
 30
0.0
 10
986.814470
 20
-53.069948
 30
0.0
 10
987.361961
 20
-52.996128
 30
0.0
 10
987.423485
 20
-53.094562
 30
0.0
  0
SPLINE
  5
49e
100
AcDbEntity
  8
Calque_1
 62
1
100
AcDbSpline
 70
8
 71
3
 72
8
 73
4
 74
0
 40
0
 40
0
 40
0
 40
0
 40
1
 40
1
 40
1
 40
1
 10
987.423485
 20
-53.094562
 30
0.0
 10
987.448100
 20
-53.156086
 30
0.0
 10
987.454236
 20
-53.328318
 30
0.0
 10
987.441940
 20
-53.611302
 30
0.0
  0
SPLINE
  5
49f
100
AcDbEntity
  8
Calque_1
 62
1
100
AcDbSpline
 70
8
 71
3
 72
8
 73
4
 74
0
 40
0
 40
0
 40
0
 40
0
 40
1
 40
1
 40
1
 40
1
 10
987.441940
 20
-53.611302
 30
0.0
 10
987.417326
 20
-53.918878
 30
0.0
 10
987.435712
 20
-54.294137
 30
0.0
 10
987.497305
 20
-54.737057
 30
0.0
  0
SPLINE
  5
4a0
100
AcDbEntity
  8
Calque_1
 62
1
100
AcDbSpline
 70
8
 71
3
 72
8
 73
4
 74
0
 40
0
 40
0
 40
0
 40
0
 40
1
 40
1
 40
1
 40
1
 10
987.497305
 20
-54.737057
 30
0.0
 10
987.620331
 20
-55.635192
 30
0.0
 10
987.626490
 20
-56.145796
 30
0.0
 10
987.515760
 20
-56.268822
 30
0.0
  0
SPLINE
  5
4a1
100
AcDbEntity
  8
Calque_1
 62
1
100
AcDbSpline
 70
8
 71
3
 72
8
 73
4
 74
0
 40
0
 40
0
 40
0
 40
0
 40
1
 40
1
 40
1
 40
1
 10
987.515760
 20
-56.268822
 30
0.0
 10
987.294300
 20
-56.514896
 30
0.0
 10
986.205455
 20
-56.299572
 30
0.0
 10
984.249226
 20
-55.622897
 30
0.0
  0
SPLINE
  5
4a2
100
AcDbEntity
  8
Calque_1
 62
1
100
AcDbSpline
 70
8
 71
3
 72
8
 73
4
 74
0
 40
0
 40
0
 40
0
 40
0
 40
1
 40
1
 40
1
 40
1
 10
984.249226
 20
-55.622897
 30
0.0
 10
983.621756
 20
-55.401437
 30
0.0
 10
983.141926
 20
-55.259956
 30
0.0
 10
982.809736
 20
-55.198432
 30
0.0
  0
SPLINE
  5
4a3
100
AcDbEntity
  8
Calque_1
 62
1
100
AcDbSpline
 70
8
 71
3
 72
8
 73
4
 74
0
 40
0
 40
0
 40
0
 40
0
 40
1
 40
1
 40
1
 40
1
 10
982.809736
 20
-55.198432
 30
0.0
 10
982.477546
 20
-55.136907
 30
0.0
 10
982.114605
 20
-55.118452
 30
0.0
 10
981.720891
 20
-55.143067
 30
0.0
  0
SPLINE
  5
4a4
100
AcDbEntity
  8
Calque_1
 62
1
100
AcDbSpline
 70
8
 71
3
 72
8
 73
4
 74
0
 40
0
 40
0
 40
0
 40
0
 40
1
 40
1
 40
1
 40
1
 10
981.720891
 20
-55.143067
 30
0.0
 10
981.364087
 20
-55.167681
 30
0.0
 10
981.142627
 20
-55.223046
 30
0.0
 10
981.056511
 20
-55.309162
 30
0.0
  0
SPLINE
  5
4a5
100
AcDbEntity
  8
Calque_1
 62
1
100
AcDbSpline
 70
8
 71
3
 72
8
 73
4
 74
0
 40
0
 40
0
 40
0
 40
0
 40
1
 40
1
 40
1
 40
1
 10
981.056511
 20
-55.309162
 30
0.0
 10
980.970395
 20
-55.395277
 30
0.0
 10
980.767391
 20
-55.518326
 30
0.0
 10
980.447496
 20
-55.678262
 30
0.0
  0
SPLINE
  5
4a6
100
AcDbEntity
  8
Calque_1
 62
1
100
AcDbSpline
 70
8
 71
3
 72
8
 73
4
 74
0
 40
0
 40
0
 40
0
 40
0
 40
1
 40
1
 40
1
 40
1
 10
980.447496
 20
-55.678262
 30
0.0
 10
980.127602
 20
-55.838197
 30
0.0
 10
979.918461
 20
-55.918177
 30
0.0
 10
979.820026
 20
-55.918177
 30
0.0
  0
SPLINE
  5
4a7
100
AcDbEntity
  8
Calque_1
 62
1
100
AcDbSpline
 70
8
 71
3
 72
8
 73
4
 74
0
 40
0
 40
0
 40
0
 40
0
 40
1
 40
1
 40
1
 40
1
 10
979.820026
 20
-55.918177
 30
0.0
 10
979.709296
 20
-55.918177
 30
0.0
 10
979.604726
 20
-55.887426
 30
0.0
 10
979.506291
 20
-55.825902
 30
0.0
  0
SPLINE
  5
4a8
100
AcDbEntity
  8
Calque_1
 62
1
100
AcDbSpline
 70
8
 71
3
 72
8
 73
4
 74
0
 40
0
 40
0
 40
0
 40
0
 40
1
 40
1
 40
1
 40
1
 10
979.506291
 20
-55.825902
 30
0.0
 10
979.407857
 20
-55.764377
 30
0.0
 10
979.346356
 20
-55.690557
 30
0.0
 10
979.321741
 20
-55.604442
 30
0.0
  0
SPLINE
  5
4a9
100
AcDbEntity
  8
Calque_1
 62
1
100
AcDbSpline
 70
8
 71
3
 72
8
 73
4
 74
0
 40
0
 40
0
 40
0
 40
0
 40
1
 40
1
 40
1
 40
1
 10
979.321741
 20
-55.604442
 30
0.0
 10
979.247921
 20
-55.235342
 30
0.0
 10
979.180261
 20
-54.324888
 30
0.0
 10
979.118736
 20
-52.873102
 30
0.0
  0
SPLINE
  5
4aa
100
AcDbEntity
  8
Calque_1
 62
1
100
AcDbSpline
 70
8
 71
3
 72
8
 73
4
 74
0
 40
0
 40
0
 40
0
 40
0
 40
1
 40
1
 40
1
 40
1
 10
979.118736
 20
-52.873102
 30
0.0
 10
979.081826
 20
-52.085697
 30
0.0
 10
979.032621
 20
-51.267517
 30
0.0
 10
978.971096
 20
-50.418587
 30
0.0
  0
SPLINE
  5
4ab
100
AcDbEntity
  8
Calque_1
 62
1
100
AcDbSpline
 70
8
 71
3
 72
8
 73
4
 74
0
 40
0
 40
0
 40
0
 40
0
 40
1
 40
1
 40
1
 40
1
 10
978.971096
 20
-50.418587
 30
0.0
 10
978.909572
 20
-49.508133
 30
0.0
 10
978.872662
 20
-48.769933
 30
0.0
 10
978.860366
 20
-48.203988
 30
0.0
  0
SPLINE
  5
4ac
100
AcDbEntity
  8
Calque_1
 62
1
100
AcDbSpline
 70
8
 71
3
 72
8
 73
4
 74
0
 40
0
 40
0
 40
0
 40
0
 40
1
 40
1
 40
1
 40
1
 10
978.860366
 20
-48.203988
 30
0.0
 10
978.835752
 20
-47.687248
 30
0.0
 10
978.798842
 20
-47.268942
 30
0.0
 10
978.749636
 20
-46.949048
 30
0.0
  0
SPLINE
  5
4ad
100
AcDbEntity
  8
Calque_1
 62
1
100
AcDbSpline
 70
8
 71
3
 72
8
 73
4
 74
0
 40
0
 40
0
 40
0
 40
0
 40
1
 40
1
 40
1
 40
1
 10
978.749636
 20
-46.949048
 30
0.0
 10
978.700431
 20
-46.629154
 30
0.0
 10
978.571246
 20
-45.970933
 30
0.0
 10
978.362081
 20
-44.974363
 30
0.0
  0
SPLINE
  5
4ae
100
AcDbEntity
  8
Calque_1
 62
1
100
AcDbSpline
 70
8
 71
3
 72
8
 73
4
 74
0
 40
0
 40
0
 40
0
 40
0
 40
1
 40
1
 40
1
 40
1
 10
978.362081
 20
-44.974363
 30
0.0
 10
978.251352
 20
-44.420713
 30
0.0
 10
978.195987
 20
-44.082364
 30
0.0
 10
978.195987
 20
-43.959338
 30
0.0
  0
SPLINE
  5
4af
100
AcDbEntity
  8
Calque_1
 62
1
100
AcDbSpline
 70
8
 71
3
 72
8
 73
4
 74
0
 40
0
 40
0
 40
0
 40
0
 40
1
 40
1
 40
1
 40
1
 10
978.195987
 20
-43.959338
 30
0.0
 10
978.195987
 20
-43.836313
 30
0.0
 10
978.152917
 20
-43.762493
 30
0.0
 10
978.066802
 20
-43.737878
 30
0.0
  0
SPLINE
  5
4b0
100
AcDbEntity
  8
Calque_1
 62
1
100
AcDbSpline
 70
8
 71
3
 72
8
 73
4
 74
0
 40
0
 40
0
 40
0
 40
0
 40
1
 40
1
 40
1
 40
1
 10
978.066802
 20
-43.737878
 30
0.0
 10
978.005277
 20
-43.737878
 30
0.0
 10
977.968367
 20
-43.713264
 30
0.0
 10
977.956072
 20
-43.664058
 30
0.0
  0
SPLINE
  5
4b1
100
AcDbEntity
  8
Calque_1
 62
1
100
AcDbSpline
 70
8
 71
3
 72
8
 73
4
 74
0
 40
0
 40
0
 40
0
 40
0
 40
1
 40
1
 40
1
 40
1
 10
977.956072
 20
-43.664058
 30
0.0
 10
977.943845
 20
-43.614853
 30
0.0
 10
977.931457
 20
-43.479508
 30
0.0
 10
977.919162
 20
-43.258048
 30
0.0
  0
LINE
  5
4b2
100
AcDbEntity
  8
Calque_1
 62
1
100
AcDbLine
 10
977.919162
 20
-43.258048
 30
0.0
 11
977.919162
 21
-43.202683
 31
0.0
  0
SPLINE
  5
4b3
100
AcDbEntity
  8
Calque_1
 62
1
100
AcDbSpline
 70
8
 71
3
 72
8
 73
4
 74
0
 40
0
 40
0
 40
0
 40
0
 40
1
 40
1
 40
1
 40
1
 10
977.919162
 20
-43.202683
 30
0.0
 10
977.906935
 20
-42.907403
 30
0.0
 10
977.956072
 20
-42.735149
 30
0.0
 10
978.066802
 20
-42.685944
 30
0.0
  0
SPLINE
  5
4b4
100
AcDbEntity
  8
Calque_1
 62
1
100
AcDbSpline
 70
8
 71
3
 72
8
 73
4
 74
0
 40
0
 40
0
 40
0
 40
0
 40
1
 40
1
 40
1
 40
1
 10
978.066802
 20
-42.685944
 30
0.0
 10
978.177532
 20
-42.636738
 30
0.0
 10
978.558927
 20
-42.612124
 30
0.0
 10
979.211011
 20
-42.612124
 30
0.0
  0
LINE
  5
4b5
100
AcDbEntity
  8
Calque_1
 62
1
100
AcDbLine
 10
979.211011
 20
-42.612124
 30
0.0
 11
979.321741
 21
-42.612124
 31
0.0
  0
SPLINE
  5
4b6
100
AcDbEntity
  8
Calque_1
 62
1
100
AcDbSpline
 70
8
 71
3
 72
8
 73
4
 74
0
 40
0
 40
0
 40
0
 40
0
 40
1
 40
1
 40
1
 40
1
 10
979.321741
 20
-42.612124
 30
0.0
 10
981.118035
 20
-42.599897
 30
0.0
 10
982.557525
 20
-42.507553
 30
0.0
 10
983.640211
 20
-42.335299
 30
0.0
  0
SPLINE
  5
4b7
100
AcDbEntity
  8
Calque_1
 62
1
100
AcDbSpline
 70
8
 71
3
 72
8
 73
4
 74
0
 40
0
 40
0
 40
0
 40
0
 40
1
 40
1
 40
1
 40
1
 10
983.640211
 20
-42.335299
 30
0.0
 10
983.837056
 20
-42.310684
 30
0.0
 10
984.181565
 20
-42.261479
 30
0.0
 10
984.673691
 20
-42.187659
 30
0.0
  0
SPLINE
  5
4b8
100
AcDbEntity
  8
Calque_1
 62
1
100
AcDbSpline
 70
8
 71
3
 72
8
 73
4
 74
0
 40
0
 40
0
 40
0
 40
0
 40
1
 40
1
 40
1
 40
1
 10
984.673691
 20
-42.187659
 30
0.0
 10
985.091996
 20
-42.138453
 30
0.0
 10
985.344230
 20
-42.107679
 30
0.0
 10
985.430346
 20
-42.095384
 30
0.0
  0
LINE
  5
4b9
100
AcDbEntity
  8
Calque_1
 62
1
100
AcDbLine
 10
985.430346
 20
-42.095384
 30
0.0
 11
985.430346
 21
-42.095384
 31
0.0
  0
SPLINE
  5
4ba
100
AcDbEntity
  8
Calque_1
 62
1
100
AcDbSpline
 70
8
 71
3
 72
8
 73
4
 74
0
 40
0
 40
0
 40
0
 40
0
 40
1
 40
1
 40
1
 40
1
 10
990.388119
 20
-43.350323
 30
0.0
 10
990.548055
 20
-43.276503
 30
0.0
 10
990.781833
 20
-43.245753
 30
0.0
 10
991.089409
 20
-43.258048
 30
0.0
  0
SPLINE
  5
4bb
100
AcDbEntity
  8
Calque_1
 62
1
100
AcDbSpline
 70
8
 71
3
 72
8
 73
4
 74
0
 40
0
 40
0
 40
0
 40
0
 40
1
 40
1
 40
1
 40
1
 10
991.089409
 20
-43.258048
 30
0.0
 10
991.544625
 20
-43.282663
 30
0.0
 10
991.846064
 20
-43.368778
 30
0.0
 10
991.993704
 20
-43.516418
 30
0.0
  0
SPLINE
  5
4bc
100
AcDbEntity
  8
Calque_1
 62
1
100
AcDbSpline
 70
8
 71
3
 72
8
 73
4
 74
0
 40
0
 40
0
 40
0
 40
0
 40
1
 40
1
 40
1
 40
1
 10
991.993704
 20
-43.516418
 30
0.0
 10
992.067524
 20
-43.577943
 30
0.0
 10
992.104434
 20
-43.750174
 30
0.0
 10
992.104434
 20
-44.033158
 30
0.0
  0
LINE
  5
4bd
100
AcDbEntity
  8
Calque_1
 62
1
100
AcDbLine
 10
992.104434
 20
-44.033158
 30
0.0
 11
992.104434
 21
-44.457623
 31
0.0
  0
LINE
  5
4be
100
AcDbEntity
  8
Calque_1
 62
1
100
AcDbLine
 10
992.104434
 20
-44.457623
 30
0.0
 11
993.008729
 21
-45.915568
 31
0.0
  0
SPLINE
  5
4bf
100
AcDbEntity
  8
Calque_1
 62
1
100
AcDbSpline
 70
8
 71
3
 72
8
 73
4
 74
0
 40
0
 40
0
 40
0
 40
0
 40
1
 40
1
 40
1
 40
1
 10
993.008729
 20
-45.915568
 30
0.0
 10
993.673109
 20
-46.985958
 30
0.0
 10
994.337489
 20
-48.044052
 30
0.0
 10
995.001868
 20
-49.089828
 30
0.0
  0
SPLINE
  5
4c0
100
AcDbEntity
  8
Calque_1
 62
1
100
AcDbSpline
 70
8
 71
3
 72
8
 73
4
 74
0
 40
0
 40
0
 40
0
 40
0
 40
1
 40
1
 40
1
 40
1
 10
995.001868
 20
-49.089828
 30
0.0
 10
995.666248
 20
-50.135603
 30
0.0
 10
996.213739
 20
-50.984533
 30
0.0
 10
996.644363
 20
-51.636617
 30
0.0
  0
SPLINE
  5
4c1
100
AcDbEntity
  8
Calque_1
 62
1
100
AcDbSpline
 70
8
 71
3
 72
8
 73
4
 74
0
 40
0
 40
0
 40
0
 40
0
 40
1
 40
1
 40
1
 40
1
 10
996.644363
 20
-51.636617
 30
0.0
 10
997.087283
 20
-52.276383
 30
0.0
 10
997.314902
 20
-52.583982
 30
0.0
 10
997.327198
 20
-52.559367
 30
0.0
  0
SPLINE
  5
4c2
100
AcDbEntity
  8
Calque_1
 62
1
100
AcDbSpline
 70
8
 71
3
 72
8
 73
4
 74
0
 40
0
 40
0
 40
0
 40
0
 40
1
 40
1
 40
1
 40
1
 10
997.327198
 20
-52.559367
 30
0.0
 10
997.351812
 20
-52.547141
 30
0.0
 10
997.444087
 20
-52.079537
 30
0.0
 10
997.604023
 20
-51.156787
 30
0.0
  0
SPLINE
  5
4c3
100
AcDbEntity
  8
Calque_1
 62
1
100
AcDbSpline
 70
8
 71
3
 72
8
 73
4
 74
0
 40
0
 40
0
 40
0
 40
0
 40
1
 40
1
 40
1
 40
1
 10
997.604023
 20
-51.156787
 30
0.0
 10
997.776277
 20
-50.234037
 30
0.0
 10
997.899303
 20
-49.557362
 30
0.0
 10
997.973123
 20
-49.126738
 30
0.0
  0
SPLINE
  5
4c4
100
AcDbEntity
  8
Calque_1
 62
1
100
AcDbSpline
 70
8
 71
3
 72
8
 73
4
 74
0
 40
0
 40
0
 40
0
 40
0
 40
1
 40
1
 40
1
 40
1
 10
997.973123
 20
-49.126738
 30
0.0
 10
998.034647
 20
-48.634612
 30
0.0
 10
998.065398
 20
-48.074803
 30
0.0
 10
998.065398
 20
-47.447333
 30
0.0
  0
SPLINE
  5
4c5
100
AcDbEntity
  8
Calque_1
 62
1
100
AcDbSpline
 70
8
 71
3
 72
8
 73
4
 74
0
 40
0
 40
0
 40
0
 40
0
 40
1
 40
1
 40
1
 40
1
 10
998.065398
 20
-47.447333
 30
0.0
 10
998.065398
 20
-46.819863
 30
0.0
 10
998.022329
 20
-46.358488
 30
0.0
 10
997.936213
 20
-46.063208
 30
0.0
  0
SPLINE
  5
4c6
100
AcDbEntity
  8
Calque_1
 62
1
100
AcDbSpline
 70
8
 71
3
 72
8
 73
4
 74
0
 40
0
 40
0
 40
0
 40
0
 40
1
 40
1
 40
1
 40
1
 10
997.936213
 20
-46.063208
 30
0.0
 10
997.862393
 20
-45.780224
 30
0.0
 10
997.782414
 20
-45.546468
 30
0.0
 10
997.696298
 20
-45.361918
 30
0.0
  0
SPLINE
  5
4c7
100
AcDbEntity
  8
Calque_1
 62
1
100
AcDbSpline
 70
8
 71
3
 72
8
 73
4
 74
0
 40
0
 40
0
 40
0
 40
0
 40
1
 40
1
 40
1
 40
1
 10
997.696298
 20
-45.361918
 30
0.0
 10
997.634774
 20
-45.238893
 30
0.0
 10
997.579409
 20
-45.165073
 30
0.0
 10
997.530203
 20
-45.140458
 30
0.0
  0
SPLINE
  5
4c8
100
AcDbEntity
  8
Calque_1
 62
1
100
AcDbSpline
 70
8
 71
3
 72
8
 73
4
 74
0
 40
0
 40
0
 40
0
 40
0
 40
1
 40
1
 40
1
 40
1
 10
997.530203
 20
-45.140458
 30
0.0
 10
997.493293
 20
-45.103548
 30
0.0
 10
997.401018
 20
-45.072798
 30
0.0
 10
997.253378
 20
-45.048183
 30
0.0
  0
SPLINE
  5
4c9
100
AcDbEntity
  8
Calque_1
 62
1
100
AcDbSpline
 70
8
 71
3
 72
8
 73
4
 74
0
 40
0
 40
0
 40
0
 40
0
 40
1
 40
1
 40
1
 40
1
 10
997.253378
 20
-45.048183
 30
0.0
 10
996.983428
 20
-44.978446
 30
0.0
 10
996.819870
 20
-44.892377
 30
0.0
 10
996.607453
 20
-44.845178
 30
0.0
  0
SPLINE
  5
4ca
100
AcDbEntity
  8
Calque_1
 62
1
100
AcDbSpline
 70
8
 71
3
 72
8
 73
4
 74
0
 40
0
 40
0
 40
0
 40
0
 40
1
 40
1
 40
1
 40
1
 10
996.607453
 20
-44.845178
 30
0.0
 10
996.558248
 20
-44.783654
 30
0.0
 10
996.552088
 20
-44.666788
 30
0.0
 10
996.588998
 20
-44.494533
 30
0.0
  0
SPLINE
  5
4cb
100
AcDbEntity
  8
Calque_1
 62
1
100
AcDbSpline
 70
8
 71
3
 72
8
 73
4
 74
0
 40
0
 40
0
 40
0
 40
0
 40
1
 40
1
 40
1
 40
1
 10
996.588998
 20
-44.494533
 30
0.0
 10
996.638204
 20
-44.322279
 30
0.0
 10
996.699728
 20
-44.205413
 30
0.0
 10
996.773548
 20
-44.143888
 30
0.0
  0
SPLINE
  5
4cc
100
AcDbEntity
  8
Calque_1
 62
1
100
AcDbSpline
 70
8
 71
3
 72
8
 73
4
 74
0
 40
0
 40
0
 40
0
 40
0
 40
1
 40
1
 40
1
 40
1
 10
996.773548
 20
-44.143888
 30
0.0
 10
996.847368
 20
-44.082364
 30
0.0
 10
996.915029
 20
-44.051613
 30
0.0
 10
996.976553
 20
-44.051613
 30
0.0
  0
SPLINE
  5
4cd
100
AcDbEntity
  8
Calque_1
 62
1
100
AcDbSpline
 70
8
 71
3
 72
8
 73
4
 74
0
 40
0
 40
0
 40
0
 40
0
 40
1
 40
1
 40
1
 40
1
 10
996.976553
 20
-44.051613
 30
0.0
 10
997.050373
 20
-44.051613
 30
0.0
 10
997.179558
 20
-44.076228
 30
0.0
 10
997.364108
 20
-44.125433
 30
0.0
  0
SPLINE
  5
4ce
100
AcDbEntity
  8
Calque_1
 62
1
100
AcDbSpline
 70
8
 71
3
 72
8
 73
4
 74
0
 40
0
 40
0
 40
0
 40
0
 40
1
 40
1
 40
1
 40
1
 10
997.364108
 20
-44.125433
 30
0.0
 10
997.560954
 20
-44.186958
 30
0.0
 10
997.979282
 20
-44.242323
 30
0.0
 10
998.619048
 20
-44.291528
 30
0.0
  0
SPLINE
  5
4cf
100
AcDbEntity
  8
Calque_1
 62
1
100
AcDbSpline
 70
8
 71
3
 72
8
 73
4
 74
0
 40
0
 40
0
 40
0
 40
0
 40
1
 40
1
 40
1
 40
1
 10
998.619048
 20
-44.291528
 30
0.0
 10
999.271132
 20
-44.328438
 30
0.0
 10
999.923193
 20
-44.340734
 30
0.0
 10
1000.575278
 20
-44.328438
 30
0.0
  0
SPLINE
  5
4d0
100
AcDbEntity
  8
Calque_1
 62
1
100
AcDbSpline
 70
8
 71
3
 72
8
 73
4
 74
0
 40
0
 40
0
 40
0
 40
0
 40
1
 40
1
 40
1
 40
1
 10
1000.575278
 20
-44.328438
 30
0.0
 10
1001.375002
 20
-44.316212
 30
0.0
 10
1001.793308
 20
-44.322210
 30
0.0
 10
1001.830218
 20
-44.346893
 30
0.0
  0
SPLINE
  5
4d1
100
AcDbEntity
  8
Calque_1
 62
1
100
AcDbSpline
 70
8
 71
3
 72
8
 73
4
 74
0
 40
0
 40
0
 40
0
 40
0
 40
1
 40
1
 40
1
 40
1
 10
1001.830218
 20
-44.346893
 30
0.0
 10
1001.879423
 20
-44.383803
 30
0.0
 10
1001.897878
 20
-44.549898
 30
0.0
 10
1001.885582
 20
-44.845178
 30
0.0
  0
SPLINE
  5
4d2
100
AcDbEntity
  8
Calque_1
 62
1
100
AcDbSpline
 70
8
 71
3
 72
8
 73
4
 74
0
 40
0
 40
0
 40
0
 40
0
 40
1
 40
1
 40
1
 40
1
 10
1001.885582
 20
-44.845178
 30
0.0
 10
1001.873356
 20
-45.128163
 30
0.0
 10
1001.836377
 20
-45.288098
 30
0.0
 10
1001.774853
 20
-45.325008
 30
0.0
  0
SPLINE
  5
4d3
100
AcDbEntity
  8
Calque_1
 62
1
100
AcDbSpline
 70
8
 71
3
 72
8
 73
4
 74
0
 40
0
 40
0
 40
0
 40
0
 40
1
 40
1
 40
1
 40
1
 10
1001.774853
 20
-45.325008
 30
0.0
 10
1001.602598
 20
-45.423442
 30
0.0
 10
1001.387298
 20
-45.454193
 30
0.0
 10
1001.128928
 20
-45.417283
 30
0.0
  0
SPLINE
  5
4d4
100
AcDbEntity
  8
Calque_1
 62
1
100
AcDbSpline
 70
8
 71
3
 72
8
 73
4
 74
0
 40
0
 40
0
 40
0
 40
0
 40
1
 40
1
 40
1
 40
1
 10
1001.128928
 20
-45.417283
 30
0.0
 10
1000.993583
 20
-45.392669
 30
0.0
 10
1000.907468
 20
-45.405057
 30
0.0
 10
1000.870558
 20
-45.454193
 30
0.0
  0
SPLINE
  5
4d5
100
AcDbEntity
  8
Calque_1
 62
1
100
AcDbSpline
 70
8
 71
3
 72
8
 73
4
 74
0
 40
0
 40
0
 40
0
 40
0
 40
1
 40
1
 40
1
 40
1
 10
1000.870558
 20
-45.454193
 30
0.0
 10
1000.833648
 20
-45.503399
 30
0.0
 10
1000.698303
 20
-45.786383
 30
0.0
 10
1000.464548
 20
-46.303123
 30
0.0
  0
SPLINE
  5
4d6
100
AcDbEntity
  8
Calque_1
 62
1
100
AcDbSpline
 70
8
 71
3
 72
8
 73
4
 74
0
 40
0
 40
0
 40
0
 40
0
 40
1
 40
1
 40
1
 40
1
 10
1000.464548
 20
-46.303123
 30
0.0
 10
1000.243088
 20
-46.807567
 30
0.0
 10
1000.070833
 20
-47.225873
 30
0.0
 10
999.947808
 20
-47.558063
 30
0.0
  0
SPLINE
  5
4d7
100
AcDbEntity
  8
Calque_1
 62
1
100
AcDbSpline
 70
8
 71
3
 72
8
 73
4
 74
0
 40
0
 40
0
 40
0
 40
0
 40
1
 40
1
 40
1
 40
1
 10
999.947808
 20
-47.558063
 30
0.0
 10
999.197312
 20
-49.440473
 30
0.0
 10
998.772847
 20
-51.519728
 30
0.0
 10
998.674413
 20
-53.795852
 30
0.0
  0
SPLINE
  5
4d8
100
AcDbEntity
  8
Calque_1
 62
1
100
AcDbSpline
 70
8
 71
3
 72
8
 73
4
 74
0
 40
0
 40
0
 40
0
 40
0
 40
1
 40
1
 40
1
 40
1
 10
998.674413
 20
-53.795852
 30
0.0
 10
998.649799
 20
-54.657078
 30
0.0
 10
998.680642
 20
-55.223046
 30
0.0
 10
998.766688
 20
-55.493712
 30
0.0
  0
SPLINE
  5
4d9
100
AcDbEntity
  8
Calque_1
 62
1
100
AcDbSpline
 70
8
 71
3
 72
8
 73
4
 74
0
 40
0
 40
0
 40
0
 40
0
 40
1
 40
1
 40
1
 40
1
 10
998.766688
 20
-55.493712
 30
0.0
 10
998.803598
 20
-55.616737
 30
0.0
 10
998.766688
 20
-55.696717
 30
0.0
 10
998.655958
 20
-55.733627
 30
0.0
  0
SPLINE
  5
4da
100
AcDbEntity
  8
Calque_1
 62
1
100
AcDbSpline
 70
8
 71
3
 72
8
 73
4
 74
0
 40
0
 40
0
 40
0
 40
0
 40
1
 40
1
 40
1
 40
1
 10
998.655958
 20
-55.733627
 30
0.0
 10
998.557524
 20
-55.782832
 30
0.0
 10
998.354519
 20
-55.807447
 30
0.0
 10
998.046943
 20
-55.807447
 30
0.0
  0
SPLINE
  5
4db
100
AcDbEntity
  8
Calque_1
 62
1
100
AcDbSpline
 70
8
 71
3
 72
8
 73
4
 74
0
 40
0
 40
0
 40
0
 40
0
 40
1
 40
1
 40
1
 40
1
 10
998.046943
 20
-55.807447
 30
0.0
 10
997.419473
 20
-55.807447
 30
0.0
 10
997.081124
 20
-55.727467
 30
0.0
 10
997.031918
 20
-55.567532
 30
0.0
  0
SPLINE
  5
4dc
100
AcDbEntity
  8
Calque_1
 62
1
100
AcDbSpline
 70
8
 71
3
 72
8
 73
4
 74
0
 40
0
 40
0
 40
0
 40
0
 40
1
 40
1
 40
1
 40
1
 10
997.031918
 20
-55.567532
 30
0.0
 10
997.007304
 20
-55.506007
 30
0.0
 10
997.001168
 20
-55.303002
 30
0.0
 10
997.013463
 20
-54.958517
 30
0.0
  0
LINE
  5
4dd
100
AcDbEntity
  8
Calque_1
 62
1
100
AcDbLine
 10
997.013463
 20
-54.958517
 30
0.0
 11
997.031918
 21
-54.460232
 31
0.0
  0
LINE
  5
4de
100
AcDbEntity
  8
Calque_1
 62
1
100
AcDbLine
 10
997.031918
 20
-54.460232
 30
0.0
 11
995.795433
 21
-52.577822
 31
0.0
  0
SPLINE
  5
4df
100
AcDbEntity
  8
Calque_1
 62
1
100
AcDbSpline
 70
8
 71
3
 72
8
 73
4
 74
0
 40
0
 40
0
 40
0
 40
0
 40
1
 40
1
 40
1
 40
1
 10
995.795433
 20
-52.577822
 30
0.0
 10
994.983413
 20
-51.310587
 30
0.0
 10
994.577404
 20
-50.640047
 30
0.0
 10
994.577404
 20
-50.566227
 30
0.0
  0
SPLINE
  5
4e0
100
AcDbEntity
  8
Calque_1
 62
1
100
AcDbSpline
 70
8
 71
3
 72
8
 73
4
 74
0
 40
0
 40
0
 40
0
 40
0
 40
1
 40
1
 40
1
 40
1
 10
994.577404
 20
-50.566227
 30
0.0
 10
994.577404
 20
-50.406292
 30
0.0
 10
994.029913
 20
-49.575817
 30
0.0
 10
992.934909
 20
-48.074803
 30
0.0
  0
LINE
  5
4e1
100
AcDbEntity
  8
Calque_1
 62
1
100
AcDbLine
 10
992.934909
 20
-48.074803
 30
0.0
 11
992.252074
 21
-47.115143
 31
0.0
  0
LINE
  5
4e2
100
AcDbEntity
  8
Calque_1
 62
1
100
AcDbLine
 10
992.252074
 20
-47.115143
 30
0.0
 11
992.215164
 21
-47.871798
 31
0.0
  0
SPLINE
  5
4e3
100
AcDbEntity
  8
Calque_1
 62
1
100
AcDbSpline
 70
8
 71
3
 72
8
 73
4
 74
0
 40
0
 40
0
 40
0
 40
0
 40
1
 40
1
 40
1
 40
1
 10
992.215164
 20
-47.871798
 30
0.0
 10
992.141344
 20
-49.249763
 30
0.0
 10
992.141344
 20
-50.338608
 30
0.0
 10
992.215164
 20
-51.138332
 30
0.0
  0
SPLINE
  5
4e4
100
AcDbEntity
  8
Calque_1
 62
1
100
AcDbSpline
 70
8
 71
3
 72
8
 73
4
 74
0
 40
0
 40
0
 40
0
 40
0
 40
1
 40
1
 40
1
 40
1
 10
992.215164
 20
-51.138332
 30
0.0
 10
992.264369
 20
-51.642777
 30
0.0
 10
992.375099
 20
-52.442478
 30
0.0
 10
992.547354
 20
-53.537482
 30
0.0
  0
SPLINE
  5
4e5
100
AcDbEntity
  8
Calque_1
 62
1
100
AcDbSpline
 70
8
 71
3
 72
8
 73
4
 74
0
 40
0
 40
0
 40
0
 40
0
 40
1
 40
1
 40
1
 40
1
 10
992.547354
 20
-53.537482
 30
0.0
 10
992.768814
 20
-54.853946
 30
0.0
 10
992.891839
 20
-55.616737
 30
0.0
 10
992.916454
 20
-55.825902
 30
0.0
  0
SPLINE
  5
4e6
100
AcDbEntity
  8
Calque_1
 62
1
100
AcDbSpline
 70
8
 71
3
 72
8
 73
4
 74
0
 40
0
 40
0
 40
0
 40
0
 40
1
 40
1
 40
1
 40
1
 10
992.916454
 20
-55.825902
 30
0.0
 10
992.941068
 20
-56.047362
 30
0.0
 10
992.934909
 20
-56.188842
 30
0.0
 10
992.897999
 20
-56.250367
 30
0.0
  0
SPLINE
  5
4e7
100
AcDbEntity
  8
Calque_1
 62
1
100
AcDbSpline
 70
8
 71
3
 72
8
 73
4
 74
0
 40
0
 40
0
 40
0
 40
0
 40
1
 40
1
 40
1
 40
1
 10
992.897999
 20
-56.250367
 30
0.0
 10
992.848793
 20
-56.311891
 30
0.0
 10
992.571968
 20
-56.330346
 30
0.0
 10
992.067524
 20
-56.305732
 30
0.0
  0
SPLINE
  5
4e8
100
AcDbEntity
  8
Calque_1
 62
1
100
AcDbSpline
 70
8
 71
3
 72
8
 73
4
 74
0
 40
0
 40
0
 40
0
 40
0
 40
1
 40
1
 40
1
 40
1
 10
992.067524
 20
-56.305732
 30
0.0
 10
991.563080
 20
-56.281117
 30
0.0
 10
991.077113
 20
-56.317958
 30
0.0
 10
990.609579
 20
-56.416462
 30
0.0
  0
SPLINE
  5
4e9
100
AcDbEntity
  8
Calque_1
 62
1
100
AcDbSpline
 70
8
 71
3
 72
8
 73
4
 74
0
 40
0
 40
0
 40
0
 40
0
 40
1
 40
1
 40
1
 40
1
 10
990.609579
 20
-56.416462
 30
0.0
 10
990.142045
 20
-56.514896
 30
0.0
 10
989.705284
 20
-56.576397
 30
0.0
 10
989.299274
 20
-56.601012
 30
0.0
  0
LINE
  5
4ea
100
AcDbEntity
  8
Calque_1
 62
1
100
AcDbLine
 10
989.299274
 20
-56.601012
 30
0.0
 11
988.708714
 21
-56.637922
 31
0.0
  0
LINE
  5
4eb
100
AcDbEntity
  8
Calque_1
 62
1
100
AcDbLine
 10
988.708714
 20
-56.637922
 30
0.0
 11
988.487254
 21
-56.434917
 31
0.0
  0
SPLINE
  5
4ec
100
AcDbEntity
  8
Calque_1
 62
1
100
AcDbSpline
 70
8
 71
3
 72
8
 73
4
 74
0
 40
0
 40
0
 40
0
 40
0
 40
1
 40
1
 40
1
 40
1
 10
988.487254
 20
-56.434917
 30
0.0
 10
988.339614
 20
-56.274981
 30
0.0
 10
988.284249
 20
-56.090431
 30
0.0
 10
988.321159
 20
-55.881267
 30
0.0
  0
SPLINE
  5
4ed
100
AcDbEntity
  8
Calque_1
 62
1
100
AcDbSpline
 70
8
 71
3
 72
8
 73
4
 74
0
 40
0
 40
0
 40
0
 40
0
 40
1
 40
1
 40
1
 40
1
 10
988.321159
 20
-55.881267
 30
0.0
 10
988.358069
 20
-55.684421
 30
0.0
 10
988.536460
 20
-55.204591
 30
0.0
 10
988.856354
 20
-54.441777
 30
0.0
  0
SPLINE
  5
4ee
100
AcDbEntity
  8
Calque_1
 62
1
100
AcDbSpline
 70
8
 71
3
 72
8
 73
4
 74
0
 40
0
 40
0
 40
0
 40
0
 40
1
 40
1
 40
1
 40
1
 10
988.856354
 20
-54.441777
 30
0.0
 10
989.299274
 20
-53.408297
 30
0.0
 10
989.754490
 20
-51.864237
 30
0.0
 10
990.222024
 20
-49.809573
 30
0.0
  0
SPLINE
  5
4ef
100
AcDbEntity
  8
Calque_1
 62
1
100
AcDbSpline
 70
8
 71
3
 72
8
 73
4
 74
0
 40
0
 40
0
 40
0
 40
0
 40
1
 40
1
 40
1
 40
1
 10
990.222024
 20
-49.809573
 30
0.0
 10
990.689558
 20
-47.791818
 30
0.0
 10
990.708013
 20
-46.050912
 30
0.0
 10
990.277389
 20
-44.586808
 30
0.0
  0
SPLINE
  5
4f0
100
AcDbEntity
  8
Calque_1
 62
1
100
AcDbSpline
 70
8
 71
3
 72
8
 73
4
 74
0
 40
0
 40
0
 40
0
 40
0
 40
1
 40
1
 40
1
 40
1
 10
990.277389
 20
-44.586808
 30
0.0
 10
990.142045
 20
-44.131593
 30
0.0
 10
990.080543
 20
-43.836313
 30
0.0
 10
990.092839
 20
-43.700968
 30
0.0
  0
SPLINE
  5
4f1
100
AcDbEntity
  8
Calque_1
 62
1
100
AcDbSpline
 70
8
 71
3
 72
8
 73
4
 74
0
 40
0
 40
0
 40
0
 40
0
 40
1
 40
1
 40
1
 40
1
 10
990.092839
 20
-43.700968
 30
0.0
 10
990.105066
 20
-43.553328
 30
0.0
 10
990.203569
 20
-43.436439
 30
0.0
 10
990.388119
 20
-43.350323
 30
0.0
  0
LINE
  5
4f2
100
AcDbEntity
  8
Calque_1
 62
1
100
AcDbLine
 10
990.388119
 20
-43.350323
 30
0.0
 11
990.388119
 21
-43.350323
 31
0.0
  0
SPLINE
  5
4f3
100
AcDbEntity
  8
Calque_1
 62
1
100
AcDbSpline
 70
8
 71
3
 72
8
 73
4
 74
0
 40
0
 40
0
 40
0
 40
0
 40
1
 40
1
 40
1
 40
1
 10
1003.055445
 20
-42.907403
 30
0.0
 10
1003.166175
 20
-42.858198
 30
0.0
 10
1003.356884
 20
-42.845879
 30
0.0
 10
1003.627550
 20
-42.870493
 30
0.0
  0
SPLINE
  5
4f4
100
AcDbEntity
  8
Calque_1
 62
1
100
AcDbSpline
 70
8
 71
3
 72
8
 73
4
 74
0
 40
0
 40
0
 40
0
 40
0
 40
1
 40
1
 40
1
 40
1
 10
1003.627550
 20
-42.870493
 30
0.0
 10
1003.910534
 20
-42.882720
 30
0.0
 10
1004.199655
 20
-42.962768
 30
0.0
 10
1004.494935
 20
-43.110408
 30
0.0
  0
SPLINE
  5
4f5
100
AcDbEntity
  8
Calque_1
 62
1
100
AcDbSpline
 70
8
 71
3
 72
8
 73
4
 74
0
 40
0
 40
0
 40
0
 40
0
 40
1
 40
1
 40
1
 40
1
 10
1004.494935
 20
-43.110408
 30
0.0
 10
1004.814829
 20
-43.270344
 30
0.0
 10
1005.356160
 20
-43.467213
 30
0.0
 10
1006.118974
 20
-43.700968
 30
0.0
  0
SPLINE
  5
4f6
100
AcDbEntity
  8
Calque_1
 62
1
100
AcDbSpline
 70
8
 71
3
 72
8
 73
4
 74
0
 40
0
 40
0
 40
0
 40
0
 40
1
 40
1
 40
1
 40
1
 10
1006.118974
 20
-43.700968
 30
0.0
 10
1007.337004
 20
-44.082364
 30
0.0
 10
1008.241299
 20
-44.217708
 30
0.0
 10
1008.831859
 20
-44.106978
 30
0.0
  0
SPLINE
  5
4f7
100
AcDbEntity
  8
Calque_1
 62
1
100
AcDbSpline
 70
8
 71
3
 72
8
 73
4
 74
0
 40
0
 40
0
 40
0
 40
0
 40
1
 40
1
 40
1
 40
1
 10
1008.831859
 20
-44.106978
 30
0.0
 10
1009.041023
 20
-44.070068
 30
0.0
 10
1009.336303
 20
-44.051613
 30
0.0
 10
1009.717699
 20
-44.051613
 30
0.0
  0
SPLINE
  5
4f8
100
AcDbEntity
  8
Calque_1
 62
1
100
AcDbSpline
 70
8
 71
3
 72
8
 73
4
 74
0
 40
0
 40
0
 40
0
 40
0
 40
1
 40
1
 40
1
 40
1
 10
1009.717699
 20
-44.051613
 30
0.0
 10
1010.099094
 20
-44.051613
 30
0.0
 10
1010.431284
 20
-44.106978
 30
0.0
 10
1010.714269
 20
-44.217708
 30
0.0
  0
SPLINE
  5
4f9
100
AcDbEntity
  8
Calque_1
 62
1
100
AcDbSpline
 70
8
 71
3
 72
8
 73
4
 74
0
 40
0
 40
0
 40
0
 40
0
 40
1
 40
1
 40
1
 40
1
 10
1010.714269
 20
-44.217708
 30
0.0
 10
1010.960343
 20
-44.303824
 30
0.0
 10
1011.107983
 20
-44.396099
 30
0.0
 10
1011.157189
 20
-44.494533
 30
0.0
  0
SPLINE
  5
4fa
100
AcDbEntity
  8
Calque_1
 62
1
100
AcDbSpline
 70
8
 71
3
 72
8
 73
4
 74
0
 40
0
 40
0
 40
0
 40
0
 40
1
 40
1
 40
1
 40
1
 10
1011.157189
 20
-44.494533
 30
0.0
 10
1011.206394
 20
-44.592968
 30
0.0
 10
1011.194099
 20
-44.752903
 30
0.0
 10
1011.120279
 20
-44.974363
 30
0.0
  0
SPLINE
  5
4fb
100
AcDbEntity
  8
Calque_1
 62
1
100
AcDbSpline
 70
8
 71
3
 72
8
 73
4
 74
0
 40
0
 40
0
 40
0
 40
0
 40
1
 40
1
 40
1
 40
1
 10
1011.120279
 20
-44.974363
 30
0.0
 10
1010.960343
 20
-45.454193
 30
0.0
 10
1010.560469
 20
-46.247758
 30
0.0
 10
1009.920704
 20
-47.355058
 30
0.0
  0
SPLINE
  5
4fc
100
AcDbEntity
  8
Calque_1
 62
1
100
AcDbSpline
 70
8
 71
3
 72
8
 73
4
 74
0
 40
0
 40
0
 40
0
 40
0
 40
1
 40
1
 40
1
 40
1
 10
1009.920704
 20
-47.355058
 30
0.0
 10
1009.588514
 20
-47.945618
 30
0.0
 10
1009.250165
 20
-48.585383
 30
0.0
 10
1008.905679
 20
-49.274378
 30
0.0
  0
SPLINE
  5
4fd
100
AcDbEntity
  8
Calque_1
 62
1
100
AcDbSpline
 70
8
 71
3
 72
8
 73
4
 74
0
 40
0
 40
0
 40
0
 40
0
 40
1
 40
1
 40
1
 40
1
 10
1008.905679
 20
-49.274378
 30
0.0
 10
1008.561193
 20
-49.951053
 30
0.0
 10
1008.229003
 20
-50.566227
 30
0.0
 10
1007.909109
 20
-51.119877
 30
0.0
  0
SPLINE
  5
4fe
100
AcDbEntity
  8
Calque_1
 62
1
100
AcDbSpline
 70
8
 71
3
 72
8
 73
4
 74
0
 40
0
 40
0
 40
0
 40
0
 40
1
 40
1
 40
1
 40
1
 10
1007.909109
 20
-51.119877
 30
0.0
 10
1007.478485
 20
-51.845782
 30
0.0
 10
1007.133999
 20
-52.559367
 30
0.0
 10
1006.875629
 20
-53.260657
 30
0.0
  0
SPLINE
  5
4ff
100
AcDbEntity
  8
Calque_1
 62
1
100
AcDbSpline
 70
8
 71
3
 72
8
 73
4
 74
0
 40
0
 40
0
 40
0
 40
0
 40
1
 40
1
 40
1
 40
1
 10
1006.875629
 20
-53.260657
 30
0.0
 10
1006.764899
 20
-53.568233
 30
0.0
 10
1006.727989
 20
-53.722032
 30
0.0
 10
1006.764899
 20
-53.722032
 30
0.0
  0
SPLINE
  5
500
100
AcDbEntity
  8
Calque_1
 62
1
100
AcDbSpline
 70
8
 71
3
 72
8
 73
4
 74
0
 40
0
 40
0
 40
0
 40
0
 40
1
 40
1
 40
1
 40
1
 10
1006.764899
 20
-53.722032
 30
0.0
 10
1006.777126
 20
-53.722032
 30
0.0
 10
1006.801809
 20
-53.715803
 30
0.0
 10
1006.838719
 20
-53.703577
 30
0.0
  0
SPLINE
  5
501
100
AcDbEntity
  8
Calque_1
 62
1
100
AcDbSpline
 70
8
 71
3
 72
8
 73
4
 74
0
 40
0
 40
0
 40
0
 40
0
 40
1
 40
1
 40
1
 40
1
 10
1006.838719
 20
-53.703577
 30
0.0
 10
1006.900244
 20
-53.691351
 30
0.0
 10
1007.324709
 20
-53.586688
 30
0.0
 10
1008.112114
 20
-53.389842
 30
0.0
  0
SPLINE
  5
502
100
AcDbEntity
  8
Calque_1
 62
1
100
AcDbSpline
 70
8
 71
3
 72
8
 73
4
 74
0
 40
0
 40
0
 40
0
 40
0
 40
1
 40
1
 40
1
 40
1
 10
1008.112114
 20
-53.389842
 30
0.0
 10
1008.862610
 20
-53.205292
 30
0.0
 10
1009.379350
 20
-53.063811
 30
0.0
 10
1009.662334
 20
-52.965377
 30
0.0
  0
SPLINE
  5
503
100
AcDbEntity
  8
Calque_1
 62
1
100
AcDbSpline
 70
8
 71
3
 72
8
 73
4
 74
0
 40
0
 40
0
 40
0
 40
0
 40
1
 40
1
 40
1
 40
1
 10
1009.662334
 20
-52.965377
 30
0.0
 10
1009.957614
 20
-52.866943
 30
0.0
 10
1010.357464
 20
-52.700848
 30
0.0
 10
1010.861909
 20
-52.467092
 30
0.0
  0
SPLINE
  5
504
100
AcDbEntity
  8
Calque_1
 62
1
100
AcDbSpline
 70
8
 71
3
 72
8
 73
4
 74
0
 40
0
 40
0
 40
0
 40
0
 40
1
 40
1
 40
1
 40
1
 10
1010.861909
 20
-52.467092
 30
0.0
 10
1011.427854
 20
-52.196427
 30
0.0
 10
1011.760044
 20
-52.061082
 30
0.0
 10
1011.858479
 20
-52.061082
 30
0.0
  0
SPLINE
  5
505
100
AcDbEntity
  8
Calque_1
 62
1
100
AcDbSpline
 70
8
 71
3
 72
8
 73
4
 74
0
 40
0
 40
0
 40
0
 40
0
 40
1
 40
1
 40
1
 40
1
 10
1011.858479
 20
-52.061082
 30
0.0
 10
1011.932299
 20
-52.061082
 30
0.0
 10
1012.012278
 20
-52.159517
 30
0.0
 10
1012.098394
 20
-52.356362
 30
0.0
  0
SPLINE
  5
506
100
AcDbEntity
  8
Calque_1
 62
1
100
AcDbSpline
 70
8
 71
3
 72
8
 73
4
 74
0
 40
0
 40
0
 40
0
 40
0
 40
1
 40
1
 40
1
 40
1
 10
1012.098394
 20
-52.356362
 30
0.0
 10
1012.184509
 20
-52.540912
 30
0.0
 10
1012.362923
 20
-53.020742
 30
0.0
 10
1012.633588
 20
-53.795852
 30
0.0
  0
SPLINE
  5
507
100
AcDbEntity
  8
Calque_1
 62
1
100
AcDbSpline
 70
8
 71
3
 72
8
 73
4
 74
0
 40
0
 40
0
 40
0
 40
0
 40
1
 40
1
 40
1
 40
1
 10
1012.633588
 20
-53.795852
 30
0.0
 10
1012.768933
 20
-54.177248
 30
0.0
 10
1012.867344
 20
-54.484846
 30
0.0
 10
1012.928868
 20
-54.718602
 30
0.0
  0
SPLINE
  5
508
100
AcDbEntity
  8
Calque_1
 62
1
100
AcDbSpline
 70
8
 71
3
 72
8
 73
4
 74
0
 40
0
 40
0
 40
0
 40
0
 40
1
 40
1
 40
1
 40
1
 10
1012.928868
 20
-54.718602
 30
0.0
 10
1013.002688
 20
-54.940062
 30
0.0
 10
1013.045758
 20
-55.124612
 30
0.0
 10
1013.058053
 20
-55.272252
 30
0.0
  0
SPLINE
  5
509
100
AcDbEntity
  8
Calque_1
 62
1
100
AcDbSpline
 70
8
 71
3
 72
8
 73
4
 74
0
 40
0
 40
0
 40
0
 40
0
 40
1
 40
1
 40
1
 40
1
 10
1013.058053
 20
-55.272252
 30
0.0
 10
1013.082668
 20
-55.419892
 30
0.0
 10
1013.076508
 20
-55.518326
 30
0.0
 10
1013.039598
 20
-55.567532
 30
0.0
  0
SPLINE
  5
50a
100
AcDbEntity
  8
Calque_1
 62
1
100
AcDbSpline
 70
8
 71
3
 72
8
 73
4
 74
0
 40
0
 40
0
 40
0
 40
0
 40
1
 40
1
 40
1
 40
1
 10
1013.039598
 20
-55.567532
 30
0.0
 10
1013.014984
 20
-55.616737
 30
0.0
 10
1012.959619
 20
-55.641352
 30
0.0
 10
1012.873503
 20
-55.641352
 30
0.0
  0
SPLINE
  5
50b
100
AcDbEntity
  8
Calque_1
 62
1
100
AcDbSpline
 70
8
 71
3
 72
8
 73
4
 74
0
 40
0
 40
0
 40
0
 40
0
 40
1
 40
1
 40
1
 40
1
 10
1012.873503
 20
-55.641352
 30
0.0
 10
1012.750478
 20
-55.641352
 30
0.0
 10
1012.621293
 20
-55.610601
 30
0.0
 10
1012.485948
 20
-55.549077
 30
0.0
  0
SPLINE
  5
50c
100
AcDbEntity
  8
Calque_1
 62
1
100
AcDbSpline
 70
8
 71
3
 72
8
 73
4
 74
0
 40
0
 40
0
 40
0
 40
0
 40
1
 40
1
 40
1
 40
1
 10
1012.485948
 20
-55.549077
 30
0.0
 10
1012.338308
 20
-55.487552
 30
0.0
 10
1012.215283
 20
-55.456802
 30
0.0
 10
1012.116849
 20
-55.456802
 30
0.0
  0
SPLINE
  5
50d
100
AcDbEntity
  8
Calque_1
 62
1
100
AcDbSpline
 70
8
 71
3
 72
8
 73
4
 74
0
 40
0
 40
0
 40
0
 40
0
 40
1
 40
1
 40
1
 40
1
 10
1012.116849
 20
-55.456802
 30
0.0
 10
1012.006119
 20
-55.456802
 30
0.0
 10
1011.938458
 20
-55.432187
 30
0.0
 10
1011.913844
 20
-55.382982
 30
0.0
  0
SPLINE
  5
50e
100
AcDbEntity
  8
Calque_1
 62
1
100
AcDbSpline
 70
8
 71
3
 72
8
 73
4
 74
0
 40
0
 40
0
 40
0
 40
0
 40
1
 40
1
 40
1
 40
1
 10
1011.913844
 20
-55.382982
 30
0.0
 10
1011.876934
 20
-55.321457
 30
0.0
 10
1011.624723
 20
-55.235342
 30
0.0
 10
1011.157189
 20
-55.124612
 30
0.0
  0
SPLINE
  5
50f
100
AcDbEntity
  8
Calque_1
 62
1
100
AcDbSpline
 70
8
 71
3
 72
8
 73
4
 74
0
 40
0
 40
0
 40
0
 40
0
 40
1
 40
1
 40
1
 40
1
 10
1011.157189
 20
-55.124612
 30
0.0
 10
1010.689654
 20
-55.001586
 30
0.0
 10
1010.265189
 20
-54.921607
 30
0.0
 10
1009.883794
 20
-54.884697
 30
0.0
  0
SPLINE
  5
510
100
AcDbEntity
  8
Calque_1
 62
1
100
AcDbSpline
 70
8
 71
3
 72
8
 73
4
 74
0
 40
0
 40
0
 40
0
 40
0
 40
1
 40
1
 40
1
 40
1
 10
1009.883794
 20
-54.884697
 30
0.0
 10
1009.465488
 20
-54.835491
 30
0.0
 10
1008.868769
 20
-54.853946
 30
0.0
 10
1008.093659
 20
-54.940062
 30
0.0
  0
SPLINE
  5
511
100
AcDbEntity
  8
Calque_1
 62
1
100
AcDbSpline
 70
8
 71
3
 72
8
 73
4
 74
0
 40
0
 40
0
 40
0
 40
0
 40
1
 40
1
 40
1
 40
1
 10
1008.093659
 20
-54.940062
 30
0.0
 10
1007.318549
 20
-55.026177
 30
0.0
 10
1006.881789
 20
-55.087702
 30
0.0
 10
1006.783354
 20
-55.124612
 30
0.0
  0
SPLINE
  5
512
100
AcDbEntity
  8
Calque_1
 62
1
100
AcDbSpline
 70
8
 71
3
 72
8
 73
4
 74
0
 40
0
 40
0
 40
0
 40
0
 40
1
 40
1
 40
1
 40
1
 10
1006.783354
 20
-55.124612
 30
0.0
 10
1006.684920
 20
-55.161522
 30
0.0
 10
1006.438869
 20
-55.229182
 30
0.0
 10
1006.045154
 20
-55.327617
 30
0.0
  0
SPLINE
  5
513
100
AcDbEntity
  8
Calque_1
 62
1
100
AcDbSpline
 70
8
 71
3
 72
8
 73
4
 74
0
 40
0
 40
0
 40
0
 40
0
 40
1
 40
1
 40
1
 40
1
 10
1006.045154
 20
-55.327617
 30
0.0
 10
1005.663759
 20
-55.426051
 30
0.0
 10
1005.294659
 20
-55.469097
 30
0.0
 10
1004.937855
 20
-55.456802
 30
0.0
  0
SPLINE
  5
514
100
AcDbEntity
  8
Calque_1
 62
1
100
AcDbSpline
 70
8
 71
3
 72
8
 73
4
 74
0
 40
0
 40
0
 40
0
 40
0
 40
1
 40
1
 40
1
 40
1
 10
1004.937855
 20
-55.456802
 30
0.0
 10
1004.494935
 20
-55.419892
 30
0.0
 10
1003.996650
 20
-55.339912
 30
0.0
 10
1003.443000
 20
-55.216887
 30
0.0
  0
SPLINE
  5
515
100
AcDbEntity
  8
Calque_1
 62
1
100
AcDbSpline
 70
8
 71
3
 72
8
 73
4
 74
0
 40
0
 40
0
 40
0
 40
0
 40
1
 40
1
 40
1
 40
1
 10
1003.443000
 20
-55.216887
 30
0.0
 10
1002.901645
 20
-55.081542
 30
0.0
 10
1002.538705
 20
-54.946221
 30
0.0
 10
1002.354155
 20
-54.810877
 30
0.0
  0
SPLINE
  5
516
100
AcDbEntity
  8
Calque_1
 62
1
100
AcDbSpline
 70
8
 71
3
 72
8
 73
4
 74
0
 40
0
 40
0
 40
0
 40
0
 40
1
 40
1
 40
1
 40
1
 10
1002.354155
 20
-54.810877
 30
0.0
 10
1002.206515
 20
-54.712442
 30
0.0
 10
1002.181901
 20
-54.583258
 30
0.0
 10
1002.280335
 20
-54.423322
 30
0.0
  0
SPLINE
  5
517
100
AcDbEntity
  8
Calque_1
 62
1
100
AcDbSpline
 70
8
 71
3
 72
8
 73
4
 74
0
 40
0
 40
0
 40
0
 40
0
 40
1
 40
1
 40
1
 40
1
 10
1002.280335
 20
-54.423322
 30
0.0
 10
1002.391065
 20
-54.251068
 30
0.0
 10
1002.790915
 20
-53.814307
 30
0.0
 10
1003.479910
 20
-53.113017
 30
0.0
  0
SPLINE
  5
518
100
AcDbEntity
  8
Calque_1
 62
1
100
AcDbSpline
 70
8
 71
3
 72
8
 73
4
 74
0
 40
0
 40
0
 40
0
 40
0
 40
1
 40
1
 40
1
 40
1
 10
1003.479910
 20
-53.113017
 30
0.0
 10
1004.722554
 20
-51.845782
 30
0.0
 10
1006.063609
 20
-50.350927
 30
0.0
 10
1007.503099
 20
-48.628453
 30
0.0
  0
SPLINE
  5
519
100
AcDbEntity
  8
Calque_1
 62
1
100
AcDbSpline
 70
8
 71
3
 72
8
 73
4
 74
0
 40
0
 40
0
 40
0
 40
0
 40
1
 40
1
 40
1
 40
1
 10
1007.503099
 20
-48.628453
 30
0.0
 10
1007.946019
 20
-48.074803
 30
0.0
 10
1008.382780
 20
-47.373513
 30
0.0
 10
1008.813404
 20
-46.524583
 30
0.0
  0
SPLINE
  5
51a
100
AcDbEntity
  8
Calque_1
 62
1
100
AcDbSpline
 70
8
 71
3
 72
8
 73
4
 74
0
 40
0
 40
0
 40
0
 40
0
 40
1
 40
1
 40
1
 40
1
 10
1008.813404
 20
-46.524583
 30
0.0
 10
1009.170208
 20
-45.786383
 30
0.0
 10
1009.317848
 20
-45.386533
 30
0.0
 10
1009.256324
 20
-45.325008
 30
0.0
  0
SPLINE
  5
51b
100
AcDbEntity
  8
Calque_1
 62
1
100
AcDbSpline
 70
8
 71
3
 72
8
 73
4
 74
0
 40
0
 40
0
 40
0
 40
0
 40
1
 40
1
 40
1
 40
1
 10
1009.256324
 20
-45.325008
 30
0.0
 10
1009.231710
 20
-45.300394
 30
0.0
 10
1008.536579
 20
-45.294258
 30
0.0
 10
1007.170909
 20
-45.306553
 30
0.0
  0
SPLINE
  5
51c
100
AcDbEntity
  8
Calque_1
 62
1
100
AcDbSpline
 70
8
 71
3
 72
8
 73
4
 74
0
 40
0
 40
0
 40
0
 40
0
 40
1
 40
1
 40
1
 40
1
 10
1007.170909
 20
-45.306553
 30
0.0
 10
1005.792944
 20
-45.306553
 30
0.0
 10
1004.913240
 20
-45.343463
 30
0.0
 10
1004.531845
 20
-45.417283
 30
0.0
  0
SPLINE
  5
51d
100
AcDbEntity
  8
Calque_1
 62
1
100
AcDbSpline
 70
8
 71
3
 72
8
 73
4
 74
0
 40
0
 40
0
 40
0
 40
0
 40
1
 40
1
 40
1
 40
1
 10
1004.531845
 20
-45.417283
 30
0.0
 10
1004.125835
 20
-45.503399
 30
0.0
 10
1003.775190
 20
-45.558764
 30
0.0
 10
1003.479910
 20
-45.583378
 30
0.0
  0
SPLINE
  5
51e
100
AcDbEntity
  8
Calque_1
 62
1
100
AcDbSpline
 70
8
 71
3
 72
8
 73
4
 74
0
 40
0
 40
0
 40
0
 40
0
 40
1
 40
1
 40
1
 40
1
 10
1003.479910
 20
-45.583378
 30
0.0
 10
1003.172334
 20
-45.607992
 30
0.0
 10
1003.006239
 20
-45.583378
 30
0.0
 10
1002.981625
 20
-45.509558
 30
0.0
  0
SPLINE
  5
51f
100
AcDbEntity
  8
Calque_1
 62
1
100
AcDbSpline
 70
8
 71
3
 72
8
 73
4
 74
0
 40
0
 40
0
 40
0
 40
0
 40
1
 40
1
 40
1
 40
1
 10
1002.981625
 20
-45.509558
 30
0.0
 10
1002.957010
 20
-45.448034
 30
0.0
 10
1002.957010
 20
-45.398828
 30
0.0
 10
1002.981625
 20
-45.361918
 30
0.0
  0
SPLINE
  5
520
100
AcDbEntity
  8
Calque_1
 62
1
100
AcDbSpline
 70
8
 71
3
 72
8
 73
4
 74
0
 40
0
 40
0
 40
0
 40
0
 40
1
 40
1
 40
1
 40
1
 10
1002.981625
 20
-45.361918
 30
0.0
 10
1003.006239
 20
-45.325008
 30
0.0
 10
1002.987853
 20
-44.986659
 30
0.0
 10
1002.926260
 20
-44.346893
 30
0.0
  0
SPLINE
  5
521
100
AcDbEntity
  8
Calque_1
 62
1
100
AcDbSpline
 70
8
 71
3
 72
8
 73
4
 74
0
 40
0
 40
0
 40
0
 40
0
 40
1
 40
1
 40
1
 40
1
 10
1002.926260
 20
-44.346893
 30
0.0
 10
1002.864735
 20
-43.780948
 30
0.0
 10
1002.840144
 20
-43.411848
 30
0.0
 10
1002.852440
 20
-43.239593
 30
0.0
  0
SPLINE
  5
522
100
AcDbEntity
  8
Calque_1
 62
1
100
AcDbSpline
 70
8
 71
3
 72
8
 73
4
 74
0
 40
0
 40
0
 40
0
 40
0
 40
1
 40
1
 40
1
 40
1
 10
1002.852440
 20
-43.239593
 30
0.0
 10
1002.864666
 20
-43.055043
 30
0.0
 10
1002.932419
 20
-42.944313
 30
0.0
 10
1003.055445
 20
-42.907403
 30
0.0
  0
LINE
  5
523
100
AcDbEntity
  8
Calque_1
 62
1
100
AcDbLine
 10
1003.055445
 20
-42.907403
 30
0.0
 11
1003.055445
 21
-42.907403
 31
0.0
  0
SPLINE
  5
524
100
AcDbEntity
  8
Calque_1
 62
1
100
AcDbSpline
 70
8
 71
3
 72
8
 73
4
 74
0
 40
0
 40
0
 40
0
 40
0
 40
1
 40
1
 40
1
 40
1
 10
1018.990758
 20
-44.106978
 30
0.0
 10
1019.728958
 20
-44.045454
 30
0.0
 10
1020.442544
 20
-44.063909
 30
0.0
 10
1021.131538
 20
-44.162343
 30
0.0
  0
SPLINE
  5
525
100
AcDbEntity
  8
Calque_1
 62
1
100
AcDbSpline
 70
8
 71
3
 72
8
 73
4
 74
0
 40
0
 40
0
 40
0
 40
0
 40
1
 40
1
 40
1
 40
1
 10
1021.131538
 20
-44.162343
 30
0.0
 10
1021.365294
 20
-44.199253
 30
0.0
 10
1021.623664
 20
-44.291528
 30
0.0
 10
1021.906648
 20
-44.439168
 30
0.0
  0
SPLINE
  5
526
100
AcDbEntity
  8
Calque_1
 62
1
100
AcDbSpline
 70
8
 71
3
 72
8
 73
4
 74
0
 40
0
 40
0
 40
0
 40
0
 40
1
 40
1
 40
1
 40
1
 10
1021.906648
 20
-44.439168
 30
0.0
 10
1022.128108
 20
-44.549898
 30
0.0
 10
1022.275748
 20
-44.648333
 30
0.0
 10
1022.349568
 20
-44.734448
 30
0.0
  0
SPLINE
  5
527
100
AcDbEntity
  8
Calque_1
 62
1
100
AcDbSpline
 70
8
 71
3
 72
8
 73
4
 74
0
 40
0
 40
0
 40
0
 40
0
 40
1
 40
1
 40
1
 40
1
 10
1022.349568
 20
-44.734448
 30
0.0
 10
1022.423388
 20
-44.820564
 30
0.0
 10
1022.577187
 20
-45.078934
 30
0.0
 10
1022.810943
 20
-45.509558
 30
0.0
  0
SPLINE
  5
528
100
AcDbEntity
  8
Calque_1
 62
1
100
AcDbSpline
 70
8
 71
3
 72
8
 73
4
 74
0
 40
0
 40
0
 40
0
 40
0
 40
1
 40
1
 40
1
 40
1
 10
1022.810943
 20
-45.509558
 30
0.0
 10
1023.020107
 20
-45.903272
 30
0.0
 10
1023.210793
 20
-46.499969
 30
0.0
 10
1023.383048
 20
-47.299693
 30
0.0
  0
SPLINE
  5
529
100
AcDbEntity
  8
Calque_1
 62
1
100
AcDbSpline
 70
8
 71
3
 72
8
 73
4
 74
0
 40
0
 40
0
 40
0
 40
0
 40
1
 40
1
 40
1
 40
1
 10
1023.383048
 20
-47.299693
 30
0.0
 10
1023.555302
 20
-48.087098
 30
0.0
 10
1023.653713
 20
-48.831458
 30
0.0
 10
1023.678328
 20
-49.532748
 30
0.0
  0
SPLINE
  5
52a
100
AcDbEntity
  8
Calque_1
 62
1
100
AcDbSpline
 70
8
 71
3
 72
8
 73
4
 74
0
 40
0
 40
0
 40
0
 40
0
 40
1
 40
1
 40
1
 40
1
 10
1023.678328
 20
-49.532748
 30
0.0
 10
1023.702942
 20
-50.012578
 30
0.0
 10
1023.672099
 20
-50.424747
 30
0.0
 10
1023.586053
 20
-50.769232
 30
0.0
  0
SPLINE
  5
52b
100
AcDbEntity
  8
Calque_1
 62
1
100
AcDbSpline
 70
8
 71
3
 72
8
 73
4
 74
0
 40
0
 40
0
 40
0
 40
0
 40
1
 40
1
 40
1
 40
1
 10
1023.586053
 20
-50.769232
 30
0.0
 10
1023.315387
 20
-51.876532
 30
0.0
 10
1022.694053
 20
-52.897716
 30
0.0
 10
1021.722098
 20
-53.832762
 30
0.0
  0
SPLINE
  5
52c
100
AcDbEntity
  8
Calque_1
 62
1
100
AcDbSpline
 70
8
 71
3
 72
8
 73
4
 74
0
 40
0
 40
0
 40
0
 40
0
 40
1
 40
1
 40
1
 40
1
 10
1021.722098
 20
-53.832762
 30
0.0
 10
1021.205358
 20
-54.324888
 30
0.0
 10
1020.657867
 20
-54.712442
 30
0.0
 10
1020.079603
 20
-54.995427
 30
0.0
  0
SPLINE
  5
52d
100
AcDbEntity
  8
Calque_1
 62
1
100
AcDbSpline
 70
8
 71
3
 72
8
 73
4
 74
0
 40
0
 40
0
 40
0
 40
0
 40
1
 40
1
 40
1
 40
1
 10
1020.079603
 20
-54.995427
 30
0.0
 10
1019.772028
 20
-55.143067
 30
0.0
 10
1019.489043
 20
-55.296866
 30
0.0
 10
1019.230673
 20
-55.456802
 30
0.0
  0
SPLINE
  5
52e
100
AcDbEntity
  8
Calque_1
 62
1
100
AcDbSpline
 70
8
 71
3
 72
8
 73
4
 74
0
 40
0
 40
0
 40
0
 40
0
 40
1
 40
1
 40
1
 40
1
 10
1019.230673
 20
-55.456802
 30
0.0
 10
1018.935393
 20
-55.629056
 30
0.0
 10
1018.683183
 20
-55.739786
 30
0.0
 10
1018.474018
 20
-55.788992
 30
0.0
  0
SPLINE
  5
52f
100
AcDbEntity
  8
Calque_1
 62
1
100
AcDbSpline
 70
8
 71
3
 72
8
 73
4
 74
0
 40
0
 40
0
 40
0
 40
0
 40
1
 40
1
 40
1
 40
1
 10
1018.474018
 20
-55.788992
 30
0.0
 10
1018.264854
 20
-55.850516
 30
0.0
 10
1018.012643
 20
-55.875107
 30
0.0
 10
1017.717364
 20
-55.862812
 30
0.0
  0
SPLINE
  5
530
100
AcDbEntity
  8
Calque_1
 62
1
100
AcDbSpline
 70
8
 71
3
 72
8
 73
4
 74
0
 40
0
 40
0
 40
0
 40
0
 40
1
 40
1
 40
1
 40
1
 10
1017.717364
 20
-55.862812
 30
0.0
 10
1017.385174
 20
-55.838197
 30
0.0
 10
1017.102189
 20
-55.770537
 30
0.0
 10
1016.868434
 20
-55.659807
 30
0.0
  0
SPLINE
  5
531
100
AcDbEntity
  8
Calque_1
 62
1
100
AcDbSpline
 70
8
 71
3
 72
8
 73
4
 74
0
 40
0
 40
0
 40
0
 40
0
 40
1
 40
1
 40
1
 40
1
 10
1016.868434
 20
-55.659807
 30
0.0
 10
1016.646974
 20
-55.549077
 30
0.0
 10
1016.407059
 20
-55.358367
 30
0.0
 10
1016.148689
 20
-55.087702
 30
0.0
  0
SPLINE
  5
532
100
AcDbEntity
  8
Calque_1
 62
1
100
AcDbSpline
 70
8
 71
3
 72
8
 73
4
 74
0
 40
0
 40
0
 40
0
 40
0
 40
1
 40
1
 40
1
 40
1
 10
1016.148689
 20
-55.087702
 30
0.0
 10
1015.730383
 20
-54.657078
 30
0.0
 10
1015.428944
 20
-54.355661
 30
0.0
 10
1015.244394
 20
-54.183407
 30
0.0
  0
SPLINE
  5
533
100
AcDbEntity
  8
Calque_1
 62
1
100
AcDbSpline
 70
8
 71
3
 72
8
 73
4
 74
0
 40
0
 40
0
 40
0
 40
0
 40
1
 40
1
 40
1
 40
1
 10
1015.244394
 20
-54.183407
 30
0.0
 10
1014.899908
 20
-53.838921
 30
0.0
 10
1014.641538
 20
-53.519027
 30
0.0
 10
1014.469284
 20
-53.223747
 30
0.0
  0
SPLINE
  5
534
100
AcDbEntity
  8
Calque_1
 62
1
100
AcDbSpline
 70
8
 71
3
 72
8
 73
4
 74
0
 40
0
 40
0
 40
0
 40
0
 40
1
 40
1
 40
1
 40
1
 10
1014.469284
 20
-53.223747
 30
0.0
 10
1014.309348
 20
-52.928467
 30
0.0
 10
1014.161708
 20
-52.540912
 30
0.0
 10
1014.026364
 20
-52.061082
 30
0.0
  0
SPLINE
  5
535
100
AcDbEntity
  8
Calque_1
 62
1
100
AcDbSpline
 70
8
 71
3
 72
8
 73
4
 74
0
 40
0
 40
0
 40
0
 40
0
 40
1
 40
1
 40
1
 40
1
 10
1014.026364
 20
-52.061082
 30
0.0
 10
1013.952544
 20
-51.778098
 30
0.0
 10
1013.915634
 20
-51.347497
 30
0.0
 10
1013.915634
 20
-50.769232
 30
0.0
  0
SPLINE
  5
536
100
AcDbEntity
  8
Calque_1
 62
1
100
AcDbSpline
 70
8
 71
3
 72
8
 73
4
 74
0
 40
0
 40
0
 40
0
 40
0
 40
1
 40
1
 40
1
 40
1
 10
1013.915634
 20
-50.769232
 30
0.0
 10
1013.927860
 20
-50.178672
 30
0.0
 10
1013.977158
 20
-49.692683
 30
0.0
 10
1014.063274
 20
-49.311288
 30
0.0
  0
SPLINE
  5
537
100
AcDbEntity
  8
Calque_1
 62
1
100
AcDbSpline
 70
8
 71
3
 72
8
 73
4
 74
0
 40
0
 40
0
 40
0
 40
0
 40
1
 40
1
 40
1
 40
1
 10
1014.063274
 20
-49.311288
 30
0.0
 10
1014.432374
 20
-47.576518
 30
0.0
 10
1015.145960
 20
-46.223144
 30
0.0
 10
1016.204054
 20
-45.251188
 30
0.0
  0
SPLINE
  5
538
100
AcDbEntity
  8
Calque_1
 62
1
100
AcDbSpline
 70
8
 71
3
 72
8
 73
4
 74
0
 40
0
 40
0
 40
0
 40
0
 40
1
 40
1
 40
1
 40
1
 10
1016.204054
 20
-45.251188
 30
0.0
 10
1016.905344
 20
-44.599104
 30
0.0
 10
1017.834253
 20
-44.217708
 30
0.0
 10
1018.990758
 20
-44.106978
 30
0.0
  0
LINE
  5
539
100
AcDbEntity
  8
Calque_1
 62
1
100
AcDbLine
 10
1018.990758
 20
-44.106978
 30
0.0
 11
1018.990758
 21
-44.106978
 31
0.0
  0
SPLINE
  5
53a
100
AcDbEntity
  8
Calque_1
 62
1
100
AcDbSpline
 70
8
 71
3
 72
8
 73
4
 74
0
 40
0
 40
0
 40
0
 40
0
 40
1
 40
1
 40
1
 40
1
 10
1020.707073
 20
-47.281238
 30
0.0
 10
1020.276449
 20
-47.059778
 30
0.0
 10
1019.648979
 20
-47.084392
 30
0.0
 10
1018.824663
 20
-47.355058
 30
0.0
  0
SPLINE
  5
53b
100
AcDbEntity
  8
Calque_1
 62
1
100
AcDbSpline
 70
8
 71
3
 72
8
 73
4
 74
0
 40
0
 40
0
 40
0
 40
0
 40
1
 40
1
 40
1
 40
1
 10
1018.824663
 20
-47.355058
 30
0.0
 10
1017.299058
 20
-47.859502
 30
0.0
 10
1016.259419
 20
-48.702273
 30
0.0
 10
1015.705769
 20
-49.883393
 30
0.0
  0
SPLINE
  5
53c
100
AcDbEntity
  8
Calque_1
 62
1
100
AcDbSpline
 70
8
 71
3
 72
8
 73
4
 74
0
 40
0
 40
0
 40
0
 40
0
 40
1
 40
1
 40
1
 40
1
 10
1015.705769
 20
-49.883393
 30
0.0
 10
1015.238235
 20
-50.867667
 30
0.0
 10
1015.238235
 20
-51.716597
 30
0.0
 10
1015.705769
 20
-52.430182
 30
0.0
  0
SPLINE
  5
53d
100
AcDbEntity
  8
Calque_1
 62
1
100
AcDbSpline
 70
8
 71
3
 72
8
 73
4
 74
0
 40
0
 40
0
 40
0
 40
0
 40
1
 40
1
 40
1
 40
1
 10
1015.705769
 20
-52.430182
 30
0.0
 10
1016.111779
 20
-53.069948
 30
0.0
 10
1016.776159
 20
-53.469821
 30
0.0
 10
1017.698909
 20
-53.629757
 30
0.0
  0
SPLINE
  5
53e
100
AcDbEntity
  8
Calque_1
 62
1
100
AcDbSpline
 70
8
 71
3
 72
8
 73
4
 74
0
 40
0
 40
0
 40
0
 40
0
 40
1
 40
1
 40
1
 40
1
 10
1017.698909
 20
-53.629757
 30
0.0
 10
1018.621658
 20
-53.777397
 30
0.0
 10
1019.519794
 20
-53.635986
 30
0.0
 10
1020.393338
 20
-53.205292
 30
0.0
  0
SPLINE
  5
53f
100
AcDbEntity
  8
Calque_1
 62
1
100
AcDbSpline
 70
8
 71
3
 72
8
 73
4
 74
0
 40
0
 40
0
 40
0
 40
0
 40
1
 40
1
 40
1
 40
1
 10
1020.393338
 20
-53.205292
 30
0.0
 10
1021.057718
 20
-52.885398
 30
0.0
 10
1021.568299
 20
-52.368658
 30
0.0
 10
1021.925103
 20
-51.655072
 30
0.0
  0
SPLINE
  5
540
100
AcDbEntity
  8
Calque_1
 62
1
100
AcDbSpline
 70
8
 71
3
 72
8
 73
4
 74
0
 40
0
 40
0
 40
0
 40
0
 40
1
 40
1
 40
1
 40
1
 10
1021.925103
 20
-51.655072
 30
0.0
 10
1022.097357
 20
-51.298268
 30
0.0
 10
1022.214224
 20
-50.984533
 30
0.0
 10
1022.275748
 20
-50.713867
 30
0.0
  0
SPLINE
  5
541
100
AcDbEntity
  8
Calque_1
 62
1
100
AcDbSpline
 70
8
 71
3
 72
8
 73
4
 74
0
 40
0
 40
0
 40
0
 40
0
 40
1
 40
1
 40
1
 40
1
 10
1022.275748
 20
-50.713867
 30
0.0
 10
1022.349568
 20
-50.443202
 30
0.0
 10
1022.392637
 20
-50.086397
 30
0.0
 10
1022.404933
 20
-49.643478
 30
0.0
  0
SPLINE
  5
542
100
AcDbEntity
  8
Calque_1
 62
1
100
AcDbSpline
 70
8
 71
3
 72
8
 73
4
 74
0
 40
0
 40
0
 40
0
 40
0
 40
1
 40
1
 40
1
 40
1
 10
1022.404933
 20
-49.643478
 30
0.0
 10
1022.429547
 20
-49.286673
 30
0.0
 10
1022.435684
 20
-49.077532
 30
0.0
 10
1022.423388
 20
-49.016008
 30
0.0
  0
SPLINE
  5
543
100
AcDbEntity
  8
Calque_1
 62
1
100
AcDbSpline
 70
8
 71
3
 72
8
 73
4
 74
0
 40
0
 40
0
 40
0
 40
0
 40
1
 40
1
 40
1
 40
1
 10
1022.423388
 20
-49.016008
 30
0.0
 10
1022.411161
 20
-48.942188
 30
0.0
 10
1022.380319
 20
-48.899118
 30
0.0
 10
1022.331113
 20
-48.886823
 30
0.0
  0
SPLINE
  5
544
100
AcDbEntity
  8
Calque_1
 62
1
100
AcDbSpline
 70
8
 71
3
 72
8
 73
4
 74
0
 40
0
 40
0
 40
0
 40
0
 40
1
 40
1
 40
1
 40
1
 10
1022.331113
 20
-48.886823
 30
0.0
 10
1022.244997
 20
-48.862208
 30
0.0
 10
1022.140404
 20
-48.757638
 30
0.0
 10
1022.017378
 20
-48.573088
 30
0.0
  0
SPLINE
  5
545
100
AcDbEntity
  8
Calque_1
 62
1
100
AcDbSpline
 70
8
 71
3
 72
8
 73
4
 74
0
 40
0
 40
0
 40
0
 40
0
 40
1
 40
1
 40
1
 40
1
 10
1022.017378
 20
-48.573088
 30
0.0
 10
1021.882034
 20
-48.363923
 30
0.0
 10
1021.666733
 20
-48.117872
 30
0.0
 10
1021.371453
 20
-47.834888
 30
0.0
  0
SPLINE
  5
546
100
AcDbEntity
  8
Calque_1
 62
1
100
AcDbSpline
 70
8
 71
3
 72
8
 73
4
 74
0
 40
0
 40
0
 40
0
 40
0
 40
1
 40
1
 40
1
 40
1
 10
1021.371453
 20
-47.834888
 30
0.0
 10
1021.076173
 20
-47.539608
 30
0.0
 10
1020.854713
 20
-47.355058
 30
0.0
 10
1020.707073
 20
-47.281238
 30
0.0
  0
LINE
  5
547
100
AcDbEntity
  8
Calque_1
 62
1
100
AcDbLine
 10
1020.707073
 20
-47.281238
 30
0.0
 11
1020.707073
 21
-47.281238
 31
0.0
  0
LINE
  5
548
100
AcDbEntity
  8
Calque_1
 62
7
100
AcDbLine
 10
1055.016891
 20
-2.738754
 30
0.0
 11
1050.016873
 21
-2.738754
 31
0.0
  0
LINE
  5
549
100
AcDbEntity
  8
Calque_1
 62
7
100
AcDbLine
 10
1050.016873
 20
-7.738744
 30
0.0
 11
1055.016891
 21
-7.738744
 31
0.0
  0
LINE
  5
54a
100
AcDbEntity
  8
Calque_1
 62
7
100
AcDbLine
 10
1055.016891
 20
-7.738744
 30
0.0
 11
1055.016891
 21
-2.738754
 31
0.0
  0
LINE
  5
54b
100
AcDbEntity
  8
Calque_1
 62
7
100
AcDbLine
 10
1050.016873
 20
-2.738754
 30
0.0
 11
1050.016873
 21
-7.738744
 31
0.0
  0
LINE
  5
54c
100
AcDbEntity
  8
Calque_1
 62
7
100
AcDbLine
 10
1047.516892
 20
-5.238763
 30
0.0
 11
1047.516892
 21
-5.238763
 31
0.0
  0
SPLINE
  5
54d
100
AcDbEntity
  8
Calque_1
 62
7
100
AcDbSpline
 70
8
 71
3
 72
8
 73
4
 74
0
 40
0
 40
0
 40
0
 40
0
 40
1
 40
1
 40
1
 40
1
 10
1050.016873
 20
-9.568898
 30
0.0
 10
1048.469872
 20
-8.675721
 30
0.0
 10
1047.516892
 20
-7.025088
 30
0.0
 10
1047.516892
 20
-5.238763
 30
0.0
  0
SPLINE
  5
54e
100
AcDbEntity
  8
Calque_1
 62
7
100
AcDbSpline
 70
8
 71
3
 72
8
 73
4
 74
0
 40
0
 40
0
 40
0
 40
0
 40
1
 40
1
 40
1
 40
1
 10
1055.016891
 20
-9.568898
 30
0.0
 10
1053.469890
 20
-10.462047
 30
0.0
 10
1051.563902
 20
-10.462047
 30
0.0
 10
1050.016873
 20
-9.568898
 30
0.0
  0
SPLINE
  5
54f
100
AcDbEntity
  8
Calque_1
 62
7
100
AcDbSpline
 70
8
 71
3
 72
8
 73
4
 74
0
 40
0
 40
0
 40
0
 40
0
 40
1
 40
1
 40
1
 40
1
 10
1057.516900
 20
-5.238763
 30
0.0
 10
1057.516900
 20
-7.025088
 30
0.0
 10
1056.563892
 20
-8.675721
 30
0.0
 10
1055.016891
 20
-9.568898
 30
0.0
  0
SPLINE
  5
550
100
AcDbEntity
  8
Calque_1
 62
7
100
AcDbSpline
 70
8
 71
3
 72
8
 73
4
 74
0
 40
0
 40
0
 40
0
 40
0
 40
1
 40
1
 40
1
 40
1
 10
1055.016891
 20
-0.908627
 30
0.0
 10
1056.563892
 20
-1.801804
 30
0.0
 10
1057.516900
 20
-3.452437
 30
0.0
 10
1057.516900
 20
-5.238763
 30
0.0
  0
SPLINE
  5
551
100
AcDbEntity
  8
Calque_1
 62
7
100
AcDbSpline
 70
8
 71
3
 72
8
 73
4
 74
0
 40
0
 40
0
 40
0
 40
0
 40
1
 40
1
 40
1
 40
1
 10
1050.016873
 20
-0.908627
 30
0.0
 10
1051.563902
 20
-0.015450
 30
0.0
 10
1053.469890
 20
-0.015450
 30
0.0
 10
1055.016891
 20
-0.908627
 30
0.0
  0
SPLINE
  5
552
100
AcDbEntity
  8
Calque_1
 62
7
100
AcDbSpline
 70
8
 71
3
 72
8
 73
4
 74
0
 40
0
 40
0
 40
0
 40
0
 40
1
 40
1
 40
1
 40
1
 10
1047.516892
 20
-5.238763
 30
0.0
 10
1047.516892
 20
-3.452437
 30
0.0
 10
1048.469872
 20
-1.801804
 30
0.0
 10
1050.016873
 20
-0.908627
 30
0.0
  0
LINE
  5
553
100
AcDbEntity
  8
Calque_1
 62
7
100
AcDbLine
 10
1030.016885
 20
-60.738751
 30
0.0
 11
1020.016877
 21
-60.738751
 31
0.0
  0
LINE
  5
554
100
AcDbEntity
  8
Calque_1
 62
7
100
AcDbLine
 10
970.016892
 20
-60.738751
 30
0.0
 11
970.016892
 21
-65.738769
 31
0.0
  0
LINE
  5
555
100
AcDbEntity
  8
Calque_1
 62
7
100
AcDbLine
 10
980.016900
 20
-65.738769
 30
0.0
 11
980.016900
 21
-60.738751
 31
0.0
  0
LINE
  5
556
100
AcDbEntity
  8
Calque_1
 62
7
100
AcDbLine
 10
1045.016883
 20
-24.488745
 30
0.0
 11
1045.016883
 21
-41.238747
 31
0.0
  0
SPLINE
  5
557
100
AcDbEntity
  8
Calque_1
 62
7
100
AcDbSpline
 70
8
 71
3
 72
8
 73
4
 74
0
 40
0
 40
0
 40
0
 40
0
 40
1
 40
1
 40
1
 40
1
 10
967.353420
 20
-72.238770
 30
0.0
 10
966.460243
 20
-73.785771
 30
0.0
 10
964.809610
 20
-74.738751
 30
0.0
 10
963.023312
 20
-74.738751
 30
0.0
  0
LINE
  5
558
100
AcDbEntity
  8
Calque_1
 62
7
100
AcDbLine
 10
950.016876
 20
-41.238747
 30
0.0
 11
950.016876
 21
-57.988749
 31
0.0
  0
LINE
  5
559
100
AcDbEntity
  8
Calque_1
 62
7
100
AcDbLine
 10
1030.016885
 20
-65.738769
 30
0.0
 11
1030.016885
 21
-60.738751
 31
0.0
  0
LINE
  5
55a
100
AcDbEntity
  8
Calque_1
 62
7
100
AcDbLine
 10
980.016900
 20
-60.738751
 30
0.0
 11
970.016892
 21
-60.738751
 31
0.0
  0
SPLINE
  5
55b
100
AcDbEntity
  8
Calque_1
 62
7
100
AcDbSpline
 70
8
 71
3
 72
8
 73
4
 74
0
 40
0
 40
0
 40
0
 40
0
 40
1
 40
1
 40
1
 40
1
 10
1028.350222
 20
-69.738761
 30
0.0
 10
1030.136547
 20
-69.738761
 30
0.0
 10
1031.787180
 20
-70.691769
 30
0.0
 10
1032.680357
 20
-72.238770
 30
0.0
  0
SPLINE
  5
55c
100
AcDbEntity
  8
Calque_1
 62
7
100
AcDbSpline
 70
8
 71
3
 72
8
 73
4
 74
0
 40
0
 40
0
 40
0
 40
0
 40
1
 40
1
 40
1
 40
1
 10
967.353420
 20
-72.238770
 30
0.0
 10
968.246568
 20
-70.691769
 30
0.0
 10
969.897202
 20
-69.738761
 30
0.0
 10
971.683555
 20
-69.738761
 30
0.0
  0
LINE
  5
55d
100
AcDbEntity
  8
Calque_1
 62
7
100
AcDbLine
 10
950.016876
 20
-41.238747
 30
0.0
 11
955.016894
 21
-41.238747
 31
0.0
  0
LINE
  5
55e
100
AcDbEntity
  8
Calque_1
 62
7
100
AcDbLine
 10
955.016894
 20
-41.238747
 30
0.0
 11
955.016894
 21
-24.488745
 31
0.0
  0
LINE
  5
55f
100
AcDbEntity
  8
Calque_1
 62
7
100
AcDbLine
 10
970.016892
 20
-65.738769
 30
0.0
 11
980.016900
 21
-65.738769
 31
0.0
  0
LINE
  5
560
100
AcDbEntity
  8
Calque_1
 62
7
100
AcDbLine
 10
1045.016883
 20
-41.238747
 30
0.0
 11
1050.016901
 21
-41.238747
 31
0.0
  0
LINE
  5
561
100
AcDbEntity
  8
Calque_1
 62
7
100
AcDbLine
 10
955.016894
 20
-74.738751
 30
0.0
 11
963.023312
 21
-74.738751
 31
0.0
  0
LINE
  5
562
100
AcDbEntity
  8
Calque_1
 62
7
100
AcDbLine
 10
1050.016901
 20
-24.488745
 30
0.0
 11
1050.016901
 21
-14.921215
 31
0.0
  0
LINE
  5
563
100
AcDbEntity
  8
Calque_1
 62
7
100
AcDbLine
 10
955.016894
 20
-24.488745
 30
0.0
 11
950.016876
 21
-24.488745
 31
0.0
  0
LINE
  5
564
100
AcDbEntity
  8
Calque_1
 62
7
100
AcDbLine
 10
1037.010464
 20
-74.738751
 30
0.0
 11
1045.016883
 21
-74.738751
 31
0.0
  0
LINE
  5
565
100
AcDbEntity
  8
Calque_1
 62
7
100
AcDbLine
 10
1050.016901
 20
-57.988749
 30
0.0
 11
1045.016883
 21
-57.988749
 31
0.0
  0
LINE
  5
566
100
AcDbEntity
  8
Calque_1
 62
7
100
AcDbLine
 10
1050.016901
 20
-57.988749
 30
0.0
 11
1050.016901
 21
-41.238747
 31
0.0
  0
LINE
  5
567
100
AcDbEntity
  8
Calque_1
 62
7
100
AcDbLine
 10
1020.016877
 20
-65.738769
 30
0.0
 11
1030.016885
 21
-65.738769
 31
0.0
  0
LINE
  5
568
100
AcDbEntity
  8
Calque_1
 62
7
100
AcDbLine
 10
1045.016883
 20
-57.988749
 30
0.0
 11
1045.016883
 21
-74.738751
 31
0.0
  0
LINE
  5
569
100
AcDbEntity
  8
Calque_1
 62
7
100
AcDbLine
 10
1028.350222
 20
-69.738761
 30
0.0
 11
971.683555
 21
-69.738761
 31
0.0
  0
LINE
  5
56a
100
AcDbEntity
  8
Calque_1
 62
7
100
AcDbLine
 10
950.016876
 20
-7.738744
 30
0.0
 11
950.016876
 21
-24.488745
 31
0.0
  0
LINE
  5
56b
100
AcDbEntity
  8
Calque_1
 62
7
100
AcDbLine
 10
955.016894
 20
-74.738751
 30
0.0
 11
955.016894
 21
-57.988749
 31
0.0
  0
SPLINE
  5
56c
100
AcDbEntity
  8
Calque_1
 62
7
100
AcDbSpline
 70
8
 71
3
 72
8
 73
4
 74
0
 40
0
 40
0
 40
0
 40
0
 40
1
 40
1
 40
1
 40
1
 10
1037.010464
 20
-74.738751
 30
0.0
 10
1035.224139
 20
-74.738751
 30
0.0
 10
1033.573506
 20
-73.785771
 30
0.0
 10
1032.680357
 20
-72.238770
 30
0.0
  0
LINE
  5
56d
100
AcDbEntity
  8
Calque_1
 62
7
100
AcDbLine
 10
1050.016901
 20
-24.488745
 30
0.0
 11
1045.016883
 21
-24.488745
 31
0.0
  0
LINE
  5
56e
100
AcDbEntity
  8
Calque_1
 62
7
100
AcDbLine
 10
955.016894
 20
-57.988749
 30
0.0
 11
950.016876
 21
-57.988749
 31
0.0
  0
LINE
  5
56f
100
AcDbEntity
  8
Calque_1
 62
7
100
AcDbLine
 10
1020.016877
 20
-60.738751
 30
0.0
 11
1020.016877
 21
-65.738769
 31
0.0
  0
LINE
  5
570
100
AcDbEntity
  8
Calque_1
 62
7
100
AcDbLine
 10
1042.834430
 20
-7.738744
 30
0.0
 11
950.016876
 21
-7.738744
 31
0.0
  0
SPLINE
  5
571
100
AcDbEntity
  8
Calque_1
 62
7
100
AcDbSpline
 70
8
 71
3
 72
8
 73
4
 74
0
 40
0
 40
0
 40
0
 40
0
 40
1
 40
1
 40
1
 40
1
 10
1061.199844
 20
-10.199213
 30
0.0
 10
1058.963120
 20
-14.114454
 30
0.0
 10
1054.382823
 20
-16.048495
 30
0.0
 10
1050.016901
 20
-14.921215
 30
0.0
  0
SPLINE
  5
572
100
AcDbEntity
  8
Calque_1
 62
7
100
AcDbSpline
 70
8
 71
3
 72
8
 73
4
 74
0
 40
0
 40
0
 40
0
 40
0
 40
1
 40
1
 40
1
 40
1
 10
1059.587932
 20
1.832315
 30
0.0
 10
1062.776366
 20
-1.356091
 30
0.0
 10
1063.436568
 20
-6.283945
 30
0.0
 10
1061.199844
 20
-10.199213
 30
0.0
  0
SPLINE
  5
573
100
AcDbEntity
  8
Calque_1
 62
7
100
AcDbSpline
 70
8
 71
3
 72
8
 73
4
 74
0
 40
0
 40
0
 40
0
 40
0
 40
1
 40
1
 40
1
 40
1
 10
1047.556403
 20
3.444199
 30
0.0
 10
1051.471644
 20
5.680951
 30
0.0
 10
1056.399526
 20
5.020749
 30
0.0
 10
1059.587932
 20
1.832315
 30
0.0
  0
SPLINE
  5
574
100
AcDbEntity
  8
Calque_1
 62
7
100
AcDbSpline
 70
8
 71
3
 72
8
 73
4
 74
0
 40
0
 40
0
 40
0
 40
0
 40
1
 40
1
 40
1
 40
1
 10
1042.834430
 20
-7.738744
 30
0.0
 10
1041.707150
 20
-3.372822
 30
0.0
 10
1043.641163
 20
1.207475
 30
0.0
 10
1047.556403
 20
3.444199
 30
0.0
  0
ENDSEC
  0
SECTION
  2
OBJECTS
  0
DICTIONARY
  5
C
330
0
100
AcDbDictionary
  3
ACAD_GROUP
350
D
  3
ACAD_MLINESTYLE
350
17
  0
DICTIONARY
  5
D
330
C
100
AcDbDictionary
  0
DICTIONARY
  5
1A
330
C
100
AcDbDictionary
  0
DICTIONARY
  5
17
330
C
100
AcDbDictionary
  3
STANDARD
350
18
  0
DICTIONARY
  5
19
330
C
100
AcDbDictionary
  0
ENDSEC
  0
EOF
