  0
SECTION
  2
HEADER
  9
$ACADVER
  1
AC1009
  9
$DWGCODEPAGE
  3
ansi_1252
  9
$INSBASE
 10
0.0
 20
0.0
 30
0.0
  9
$EXTMIN
 10
37.10562509672899
 20
35.13654960887558
 30
0.0
  9
$EXTMAX
 10
2462.894374903271
 20
1264.863450391124
 30
0.0
  9
$LIMMIN
 10
0.0
 20
0.0
  9
$LIMMAX
 10
12.0
 20
9.0
  9
$ORTHOMODE
 70
     0
  9
$REGENMODE
 70
     1
  9
$FILLMODE
 70
     1
  9
$QTEXTMODE
 70
     0
  9
$MIRRTEXT
 70
     1
  9
$DRAGMODE
 70
     2
  9
$LTSCALE
 40
1.0
  9
$OSMODE
 70
    37
  9
$ATTMODE
 70
     1
  9
$TEXTSIZE
 40
0.2
  9
$TRACEWID
 40
0.05
  9
$TEXTSTYLE
  7
STANDARD
  9
$CLAYER
  8
0
  9
$CELTYPE
  6
BYLAYER
  9
$CECOLOR
 62
   256
  9
$DIMSCALE
 40
1.0
  9
$DIMASZ
 40
0.18
  9
$DIMEXO
 40
0.0625
  9
$DIMDLI
 40
0.38
  9
$DIMRND
 40
0.0
  9
$DIMDLE
 40
0.0
  9
$DIMEXE
 40
0.18
  9
$DIMTP
 40
0.0
  9
$DIMTM
 40
0.0
  9
$DIMTXT
 40
0.18
  9
$DIMCEN
 40
0.09
  9
$DIMTSZ
 40
0.0
  9
$DIMTOL
 70
     0
  9
$DIMLIM
 70
     0
  9
$DIMTIH
 70
     1
  9
$DIMTOH
 70
     1
  9
$DIMSE1
 70
     0
  9
$DIMSE2
 70
     0
  9
$DIMTAD
 70
     0
  9
$DIMZIN
 70
     0
  9
$DIMBLK
  1

  9
$DIMASO
 70
     1
  9
$DIMSHO
 70
     1
  9
$DIMPOST
  1

  9
$DIMAPOST
  1

  9
$DIMALT
 70
     0
  9
$DIMALTD
 70
     2
  9
$DIMALTF
 40
25.4
  9
$DIMLFAC
 40
1.0
  9
$DIMTOFL
 70
     0
  9
$DIMTVP
 40
0.0
  9
$DIMTIX
 70
     0
  9
$DIMSOXD
 70
     0
  9
$DIMSAH
 70
     0
  9
$DIMBLK1
  1

  9
$DIMBLK2
  1

  9
$DIMSTYLE
  2
STANDARD
  9
$DIMCLRD
 70
     0
  9
$DIMCLRE
 70
     0
  9
$DIMCLRT
 70
     0
  9
$DIMTFAC
 40
1.0
  9
$DIMGAP
 40
0.09
  9
$LUNITS
 70
     2
  9
$LUPREC
 70
     4
  9
$SKETCHINC
 40
0.1
  9
$FILLETRAD
 40
0.5
  9
$AUNITS
 70
     0
  9
$AUPREC
 70
     0
  9
$MENU
  1
.
  9
$ELEVATION
 40
0.0
  9
$PELEVATION
 40
0.0
  9
$THICKNESS
 40
0.0
  9
$LIMCHECK
 70
     0
  9
$CHAMFERA
 40
0.0
  9
$CHAMFERB
 40
0.0
  9
$SKPOLY
 70
     0
  9
$TDCREATE
 40
2454910.5
  9
$TDUPDATE
 40
2458186.853242708
  9
$TDINDWG
 40
0.0000000116
  9
$TDUSRTIMER
 40
0.0000000116
  9
$USRTIMER
 70
     1
  9
$ANGBASE
 50
0.0
  9
$ANGDIR
 70
     0
  9
$PDMODE
 70
     0
  9
$PDSIZE
 40
0.0
  9
$PLINEWID
 40
0.0
  9
$COORDS
 70
     1
  9
$SPLFRAME
 70
     0
  9
$SPLINETYPE
 70
     6
  9
$SPLINESEGS
 70
     8
  9
$ATTDIA
 70
     0
  9
$ATTREQ
 70
     1
  9
$HANDLING
 70
     1
  9
$HANDSEED
  5
504
  9
$SURFTAB1
 70
     6
  9
$SURFTAB2
 70
     6
  9
$SURFTYPE
 70
     6
  9
$SURFU
 70
     6
  9
$SURFV
 70
     6
  9
$UCSNAME
  2

  9
$UCSORG
 10
0.0
 20
0.0
 30
0.0
  9
$UCSXDIR
 10
1.0
 20
0.0
 30
0.0
  9
$UCSYDIR
 10
0.0
 20
1.0
 30
0.0
  9
$PUCSNAME
  2

  9
$PUCSORG
 10
0.0
 20
0.0
 30
0.0
  9
$PUCSXDIR
 10
1.0
 20
0.0
 30
0.0
  9
$PUCSYDIR
 10
0.0
 20
1.0
 30
0.0
  9
$USERI1
 70
     0
  9
$USERI2
 70
     0
  9
$USERI3
 70
     0
  9
$USERI4
 70
     0
  9
$USERI5
 70
     0
  9
$USERR1
 40
0.0
  9
$USERR2
 40
0.0
  9
$USERR3
 40
0.0
  9
$USERR4
 40
0.0
  9
$USERR5
 40
0.0
  9
$WORLDVIEW
 70
     1
  9
$SHADEDGE
 70
     3
  9
$SHADEDIF
 70
    70
  9
$TILEMODE
 70
     1
  9
$MAXACTVP
 70
    64
  9
$PLIMCHECK
 70
     0
  9
$PEXTMIN
 10
1.000000000000000E+20
 20
1.000000000000000E+20
 30
1.000000000000000E+20
  9
$PEXTMAX
 10
-1.000000000000000E+20
 20
-1.000000000000000E+20
 30
-1.000000000000000E+20
  9
$PLIMMIN
 10
0.0
 20
0.0
  9
$PLIMMAX
 10
12.0
 20
9.0
  9
$UNITMODE
 70
     0
  9
$VISRETAIN
 70
     1
  9
$PLINEGEN
 70
     0
  9
$PSLTSCALE
 70
     1
  0
ENDSEC
  0
SECTION
  2
TABLES
  0
TABLE
  2
VPORT
 70
     1
  0
VPORT
  2
*ACTIVE
 70
     0
 10
0.0
 20
0.0
 11
1.0
 21
1.0
 12
10.42990654205607
 22
4.5
 13
0.0
 23
0.0
 14
0.5
 24
0.5
 15
0.5
 25
0.5
 16
0.0
 26
0.0
 36
1.0
 17
0.0
 27
0.0
 37
0.0
 40
9.0
 41
1.972972972850329
 42
50.0
 43
0.0
 44
0.0
 50
0.0
 51
0.0
 71
     0
 72
   100
 73
     1
 74
     3
 75
     0
 76
     0
 77
     0
 78
     0
  0
ENDTAB
  0
TABLE
  2
LTYPE
 70
     2
  0
LTYPE
  2
CONTINUOUS
 70
     0
  3
Solid line
 72
    65
 73
     0
 40
0.0
  0
LTYPE
  2
CONTINUOUS2
 70
     0
  3
Solid Line
 72
    65
 73
     0
 40
0.0
  0
ENDTAB
  0
TABLE
  2
LAYER
 70
     4
  0
LAYER
  2
0
 70
     0
 62
     7
  6
CONTINUOUS
  0
LAYER
  2
POCHE_8MM
 70
     0
 62
     1
  6
CONTINUOUS
  0
LAYER
  2
DECOUPE_INTERNE
 70
     0
 62
   105
  6
CONTINUOUS
  0
LAYER
  2
DECOUPE_EXTERNE
 70
     0
 62
   176
  6
CONTINUOUS
  0
ENDTAB
  0
TABLE
  2
STYLE
 70
     1
  0
STYLE
  2
STANDARD
 70
     0
 40
0.0
 41
1.0
 50
0.0
 71
     0
 42
0.2
  3
txt
  4

  0
ENDTAB
  0
TABLE
  2
VIEW
 70
     0
  0
ENDTAB
  0
TABLE
  2
UCS
 70
     0
  0
ENDTAB
  0
TABLE
  2
APPID
 70
     1
  0
APPID
  2
ACAD
 70
     0
  0
ENDTAB
  0
TABLE
  2
DIMSTYLE
 70
     1
  0
DIMSTYLE
  2
STANDARD
 70
     0
  3

  4

  5

  6

  7

 40
1.0
 41
0.18
 42
0.0625
 43
0.38
 44
0.18
 45
0.0
 46
0.0
 47
0.0
 48
0.0
140
0.18
141
0.09
142
0.0
143
25.4
144
1.0
145
0.0
146
1.0
147
0.09
 71
     0
 72
     0
 73
     1
 74
     1
 75
     0
 76
     0
 77
     0
 78
     0
170
     0
171
     2
172
     0
173
     0
174
     0
175
     0
176
     0
177
     0
178
     0
  0
ENDTAB
  0
ENDSEC
  0
SECTION
  2
BLOCKS
  0
BLOCK
  8
0
  2
$MODEL_SPACE
 70
     0
 10
0.0
 20
0.0
 30
0.0
  3
$MODEL_SPACE
  1

  0
ENDBLK
  5
21
  8
0
  0
BLOCK
 67
     1
  8
0
  2
$PAPER_SPACE
 70
     0
 10
0.0
 20
0.0
 30
0.0
  3
$PAPER_SPACE
  1

  0
ENDBLK
  5
1D
 67
     1
  8
0
  0
ENDSEC
  0
SECTION
  2
ENTITIES
  0
POLYLINE
  5
6B
  8
0
 66
     1
 10
0.0
 20
0.0
 30
0.0
 70
     1
  0
VERTEX
  5
BF
  8
0
 10
465.1359165421799
 20
589.5152563387662
 30
0.0
  0
VERTEX
  5
C0
  8
0
 10
500.4039149344628
 20
589.5152563387662
 30
0.0
  0
VERTEX
  5
C1
  8
0
 10
499.3246062527908
 20
578.7856582680266
 30
0.0
  0
VERTEX
  5
C2
  8
0
 10
496.3088908187071
 20
579.261823862882
 30
0.0
  0
VERTEX
  5
C3
  8
0
 10
495.1026046450737
 20
586.5947740236537
 30
0.0
  0
VERTEX
  5
C4
  8
0
 10
485.4205708830158
 20
586.5947740236537
 30
0.0
  0
VERTEX
  5
C5
  8
0
 10
485.4205708830158
 20
553.6441148596665
 30
0.0
  0
VERTEX
  5
C6
  8
0
 10
491.2932798862313
 20
552.5648061779945
 30
0.0
  0
VERTEX
  5
C7
  8
0
 10
490.8488586643664
 20
550.0252563387662
 30
0.0
  0
VERTEX
  5
C8
  8
0
 10
473.7386416225656
 20
550.0252563387662
 30
0.0
  0
VERTEX
  5
C9
  8
0
 10
473.9608522334981
 20
552.3743399400524
 30
0.0
  0
VERTEX
  5
CA
  8
0
 10
479.3256512688679
 20
553.866325470599
 30
0.0
  0
VERTEX
  5
CB
  8
0
 10
479.3256512688679
 20
586.5947740236537
 30
0.0
  0
VERTEX
  5
CC
  8
0
 10
469.9610612367136
 20
586.5947740236537
 30
0.0
  0
VERTEX
  5
CD
  8
0
 10
468.2786094682249
 20
578.8808913869977
 30
0.0
  0
VERTEX
  5
CE
  8
0
 10
465.3898715261026
 20
579.2935682358723
 30
0.0
  0
SEQEND
  5
4BA
  8
0
  0
POLYLINE
  5
6C
  8
0
 66
     1
 10
0.0
 20
0.0
 30
0.0
 70
     1
  0
VERTEX
  5
CF
  8
0
 10
501.5149679891248
 20
587.1026839914994
 30
0.0
  0
VERTEX
  5
D0
  8
0
 10
501.8641560920188
 20
589.5152563387662
 30
0.0
  0
VERTEX
  5
D1
  8
0
 10
533.4498072174207
 20
589.5152563387662
 30
0.0
  0
VERTEX
  5
D2
  8
0
 10
532.4657316547198
 20
579.357056981853
 30
0.0
  0
VERTEX
  5
D3
  8
0
 10
529.7039712045589
 20
579.7697338307277
 30
0.0
  0
VERTEX
  5
D4
  8
0
 10
528.4024519119545
 20
586.5947740236537
 30
0.0
  0
VERTEX
  5
D5
  8
0
 10
513.4508522334978
 20
586.5947740236537
 30
0.0
  0
VERTEX
  5
D6
  8
0
 10
513.4508522334978
 20
571.4844524802453
 30
0.0
  0
VERTEX
  5
D7
  8
0
 10
522.6567204007006
 20
571.4844524802453
 30
0.0
  0
VERTEX
  5
D8
  8
0
 10
523.9899840662953
 20
575.2937772390877
 30
0.0
  0
VERTEX
  5
D9
  8
0
 10
527.0056995003789
 20
575.7381984609527
 30
0.0
  0
VERTEX
  5
DA
  8
0
 10
525.926390818707
 20
563.3896373677051
 30
0.0
  0
VERTEX
  5
DB
  8
0
 10
523.2281191145266
 20
562.9769605188305
 30
0.0
  0
VERTEX
  5
DC
  8
0
 10
522.1488104328547
 20
568.5322257921424
 30
0.0
  0
VERTEX
  5
DD
  8
0
 10
513.4508522334978
 20
568.5322257921424
 30
0.0
  0
VERTEX
  5
DE
  8
0
 10
513.4508522334978
 20
553.0727161458402
 30
0.0
  0
VERTEX
  5
DF
  8
0
 10
529.1643168637229
 20
553.0727161458402
 30
0.0
  0
VERTEX
  5
E0
  8
0
 10
532.2752654167775
 20
560.3739219336215
 30
0.0
  0
VERTEX
  5
E1
  8
0
 10
534.9100483749769
 20
559.9612450847469
 30
0.0
  0
VERTEX
  5
E2
  8
0
 10
533.9577171852663
 20
550.0252563387662
 30
0.0
  0
VERTEX
  5
E3
  8
0
 10
501.7371786000573
 20
550.0252563387662
 30
0.0
  0
VERTEX
  5
E4
  8
0
 10
501.9911335839802
 20
552.3743399400524
 30
0.0
  0
VERTEX
  5
E5
  8
0
 10
507.2924438733693
 20
553.866325470599
 30
0.0
  0
VERTEX
  5
E6
  8
0
 10
507.2924438733693
 20
585.7694203259044
 30
0.0
  0
SEQEND
  5
4BB
  8
0
  0
POLYLINE
  5
6D
  8
0
 66
     1
 10
0.0
 20
0.0
 30
0.0
 70
     1
  0
VERTEX
  5
E7
  8
0
 10
536.1480789216006
 20
553.8980698435894
 30
0.0
  0
VERTEX
  5
E8
  8
0
 10
536.5607557704752
 20
562.3738174320138
 30
0.0
  0
VERTEX
  5
E9
  8
0
 10
539.7986818154914
 20
561.9293962101489
 30
0.0
  0
VERTEX
  5
EA
  8
0
 10
541.0367123621152
 20
555.9614540879624
 30
0.0
  0
VERTEX
  5
EB
  8
0
 10
541.2800032207365
 20
555.6033378801648
 30
0.0
  0
VERTEX
  5
EC
  8
0
 10
541.5495823882404
 20
555.2591098355507
 30
0.0
  0
VERTEX
  5
ED
  8
0
 10
541.8454498646272
 20
554.9287699541198
 30
0.0
  0
VERTEX
  5
EE
  8
0
 10
542.1676056498965
 20
554.6123182358724
 30
0.0
  0
VERTEX
  5
EF
  8
0
 10
542.5160497440484
 20
554.309754680808
 30
0.0
  0
VERTEX
  5
F0
  8
0
 10
542.890782147083
 20
554.021079288927
 30
0.0
  0
VERTEX
  5
F1
  8
0
 10
543.2918028590002
 20
553.7462920602293
 30
0.0
  0
VERTEX
  5
F2
  8
0
 10
543.7191118798
 20
553.4853929947147
 30
0.0
  0
VERTEX
  5
F3
  8
0
 10
543.940640482719
 20
553.362383549377
 30
0.0
  0
VERTEX
  5
F4
  8
0
 10
544.164773116235
 20
553.247310197287
 30
0.0
  0
VERTEX
  5
F5
  8
0
 10
544.3915097803476
 20
553.1401729384445
 30
0.0
  0
VERTEX
  5
F6
  8
0
 10
544.6208504750573
 20
553.0409717728497
 30
0.0
  0
VERTEX
  5
F7
  8
0
 10
544.8527952003637
 20
552.9497067005026
 30
0.0
  0
VERTEX
  5
F8
  8
0
 10
545.0873439562671
 20
552.8663777214028
 30
0.0
  0
VERTEX
  5
F9
  8
0
 10
545.3244967427672
 20
552.7909848355507
 30
0.0
  0
VERTEX
  5
FA
  8
0
 10
545.5642535598645
 20
552.7235280429463
 30
0.0
  0
VERTEX
  5
FB
  8
0
 10
545.8066144075582
 20
552.6640073435894
 30
0.0
  0
VERTEX
  5
FC
  8
0
 10
546.051579285849
 20
552.6124227374801
 30
0.0
  0
VERTEX
  5
FD
  8
0
 10
546.2991481947367
 20
552.5687742246184
 30
0.0
  0
VERTEX
  5
FE
  8
0
 10
546.5493211342214
 20
552.5330618050042
 30
0.0
  0
VERTEX
  5
FF
  8
0
 10
546.8020981043026
 20
552.5052854786377
 30
0.0
  0
VERTEX
  5
100
  8
0
 10
547.0574791049808
 20
552.4854452455186
 30
0.0
  0
VERTEX
  5
101
  8
0
 10
547.315464136256
 20
552.4735411056472
 30
0.0
  0
VERTEX
  5
102
  8
0
 10
547.576053198128
 20
552.4695730590234
 30
0.0
  0
VERTEX
  5
103
  8
0
 10
548.0256824811868
 20
552.4797411784969
 30
0.0
  0
VERTEX
  5
104
  8
0
 10
548.4698557001377
 20
552.5102455369173
 30
0.0
  0
VERTEX
  5
105
  8
0
 10
548.9085728549809
 20
552.5610861342847
 30
0.0
  0
VERTEX
  5
106
  8
0
 10
549.3418339457164
 20
552.632262970599
 30
0.0
  0
VERTEX
  5
107
  8
0
 10
549.7696389723442
 20
552.7237760458603
 30
0.0
  0
VERTEX
  5
108
  8
0
 10
550.1919879348643
 20
552.8356253600684
 30
0.0
  0
VERTEX
  5
109
  8
0
 10
550.6088808332767
 20
552.9678109132236
 30
0.0
  0
VERTEX
  5
10A
  8
0
 10
551.0203176675814
 20
553.1203327053257
 30
0.0
  0
VERTEX
  5
10B
  8
0
 10
551.2230600497658
 20
553.2052737033663
 30
0.0
  0
VERTEX
  5
10C
  8
0
 10
551.4225783940685
 20
553.2974067859126
 30
0.0
  0
VERTEX
  5
10D
  8
0
 10
551.6188727004894
 20
553.3967319529645
 30
0.0
  0
VERTEX
  5
10E
  8
0
 10
551.8119429690285
 20
553.5032492045219
 30
0.0
  0
VERTEX
  5
10F
  8
0
 10
552.0017891996855
 20
553.6169585405851
 30
0.0
  0
VERTEX
  5
110
  8
0
 10
552.1884113924608
 20
553.7378599611537
 30
0.0
  0
VERTEX
  5
111
  8
0
 10
552.3718095473542
 20
553.8659534662281
 30
0.0
  0
VERTEX
  5
112
  8
0
 10
552.5519836643659
 20
554.0012390558081
 30
0.0
  0
VERTEX
  5
113
  8
0
 10
552.7289337434956
 20
554.1437167298938
 30
0.0
  0
VERTEX
  5
114
  8
0
 10
552.9026597847437
 20
554.2933864884849
 30
0.0
  0
VERTEX
  5
115
  8
0
 10
553.2404397535943
 20
554.6143022591842
 30
0.0
  0
VERTEX
  5
116
  8
0
 10
553.5653235709174
 20
554.963986367906
 30
0.0
  0
VERTEX
  5
117
  8
0
 10
553.8773112367131
 20
555.3424388146504
 30
0.0
  0
VERTEX
  5
118
  8
0
 10
554.0253069756349
 20
555.5413991523966
 30
0.0
  0
VERTEX
  5
119
  8
0
 10
554.1637546023683
 20
555.7454435498795
 30
0.0
  0
VERTEX
  5
11A
  8
0
 10
554.292654116913
 20
555.9545720070992
 30
0.0
  0
VERTEX
  5
11B
  8
0
 10
554.4120055192694
 20
556.1687845240556
 30
0.0
  0
VERTEX
  5
11C
  8
0
 10
554.5218088094372
 20
556.3880811007486
 30
0.0
  0
VERTEX
  5
11D
  8
0
 10
554.6220639874165
 20
556.6124617371786
 30
0.0
  0
VERTEX
  5
11E
  8
0
 10
554.7127710532072
 20
556.8419264333452
 30
0.0
  0
VERTEX
  5
11F
  8
0
 10
554.7939300068095
 20
557.0764751892485
 30
0.0
  0
VERTEX
  5
120
  8
0
 10
554.8655408482232
 20
557.3161080048887
 30
0.0
  0
VERTEX
  5
121
  8
0
 10
554.9276035774485
 20
557.5608248802655
 30
0.0
  0
VERTEX
  5
122
  8
0
 10
554.9801181944854
 20
557.810625815379
 30
0.0
  0
VERTEX
  5
123
  8
0
 10
555.0230846993337
 20
558.0655108102293
 30
0.0
  0
VERTEX
  5
124
  8
0
 10
555.0565030919934
 20
558.3254798648163
 30
0.0
  0
VERTEX
  5
125
  8
0
 10
555.0803733724647
 20
558.5905329791401
 30
0.0
  0
VERTEX
  5
126
  8
0
 10
555.0946955407475
 20
558.8606701532005
 30
0.0
  0
VERTEX
  5
127
  8
0
 10
555.0994695968418
 20
559.1358913869977
 30
0.0
  0
VERTEX
  5
128
  8
0
 10
555.0955635509464
 20
559.3412998005076
 30
0.0
  0
VERTEX
  5
129
  8
0
 10
555.0838454132605
 20
559.5448481921626
 30
0.0
  0
VERTEX
  5
12A
  8
0
 10
555.0643151837841
 20
559.7465365619626
 30
0.0
  0
VERTEX
  5
12B
  8
0
 10
555.036972862517
 20
559.9463649099077
 30
0.0
  0
VERTEX
  5
12C
  8
0
 10
555.0018184494593
 20
560.1443332359979
 30
0.0
  0
VERTEX
  5
12D
  8
0
 10
554.9588519446111
 20
560.3404415402332
 30
0.0
  0
VERTEX
  5
12E
  8
0
 10
554.9080733479722
 20
560.5346898226137
 30
0.0
  0
VERTEX
  5
12F
  8
0
 10
554.8494826595428
 20
560.7270780831392
 30
0.0
  0
VERTEX
  5
130
  8
0
 10
554.7830798793227
 20
560.9176063218099
 30
0.0
  0
VERTEX
  5
131
  8
0
 10
554.7088650073119
 20
561.1062745386256
 30
0.0
  0
VERTEX
  5
132
  8
0
 10
554.6268380435106
 20
561.2930827335865
 30
0.0
  0
VERTEX
  5
133
  8
0
 10
554.5369989879189
 20
561.4780309066923
 30
0.0
  0
VERTEX
  5
134
  8
0
 10
554.4393478405365
 20
561.6611190579433
 30
0.0
  0
VERTEX
  5
135
  8
0
 10
554.3338846013635
 20
561.8423471873394
 30
0.0
  0
VERTEX
  5
136
  8
0
 10
554.2206092703998
 20
562.0217152948807
 30
0.0
  0
VERTEX
  5
137
  8
0
 10
554.0995218476456
 20
562.1992233805669
 30
0.0
  0
VERTEX
  5
138
  8
0
 10
553.8401107996151
 20
562.5466754630628
 30
0.0
  0
VERTEX
  5
139
  8
0
 10
553.5618515301215
 20
562.8827194115154
 30
0.0
  0
VERTEX
  5
13A
  8
0
 10
553.264744039165
 20
563.2073552259245
 30
0.0
  0
VERTEX
  5
13B
  8
0
 10
552.9487883267453
 20
563.5205829062903
 30
0.0
  0
VERTEX
  5
13C
  8
0
 10
552.6139843928627
 20
563.8224024526127
 30
0.0
  0
VERTEX
  5
13D
  8
0
 10
552.2603322375171
 20
564.1128138648916
 30
0.0
  0
VERTEX
  5
13E
  8
0
 10
551.8878318607083
 20
564.3918171431271
 30
0.0
  0
VERTEX
  5
13F
  8
0
 10
551.4964832624366
 20
564.6594122873192
 30
0.0
  0
VERTEX
  5
140
  8
0
 10
550.6731135879994
 20
565.1812104183482
 30
0.0
  0
VERTEX
  5
141
  8
0
 10
549.8060954007003
 20
565.6990405027534
 30
0.0
  0
VERTEX
  5
142
  8
0
 10
548.8954287005396
 20
566.2129025405347
 30
0.0
  0
VERTEX
  5
143
  8
0
 10
547.941113487517
 20
566.7227965316922
 30
0.0
  0
VERTEX
  5
144
  8
0
 10
546.9659660297195
 20
567.2396346044413
 30
0.0
  0
VERTEX
  5
145
  8
0
 10
545.992802595234
 20
567.7743288869978
 30
0.0
  0
VERTEX
  5
146
  8
0
 10
545.0216231840604
 20
568.326879379361
 30
0.0
  0
VERTEX
  5
147
  8
0
 10
544.0524277961987
 20
568.8972860815314
 30
0.0
  0
VERTEX
  5
148
  8
0
 10
543.5735341692895
 20
569.1899295200363
 30
0.0
  0
VERTEX
  5
149
  8
0
 10
543.1050566647677
 20
569.4885250284768
 30
0.0
  0
VERTEX
  5
14A
  8
0
 10
542.6469952826335
 20
569.793072606853
 30
0.0
  0
VERTEX
  5
14B
  8
0
 10
542.1993500228868
 20
570.1035722551649
 30
0.0
  0
VERTEX
  5
14C
  8
0
 10
541.7621208855276
 20
570.4200239734125
 30
0.0
  0
VERTEX
  5
14D
  8
0
 10
541.3353078705557
 20
570.7424277615958
 30
0.0
  0
VERTEX
  5
14E
  8
0
 10
540.9189109779712
 20
571.0707836197148
 30
0.0
  0
VERTEX
  5
14F
  8
0
 10
540.5129302077743
 20
571.4050915477694
 30
0.0
  0
VERTEX
  5
150
  8
0
 10
540.1215816095025
 20
571.7522956273515
 30
0.0
  0
VERTEX
  5
151
  8
0
 10
539.7490812326939
 20
572.1193399400523
 30
0.0
  0
VERTEX
  5
152
  8
0
 10
539.3954290773481
 20
572.5062244858723
 30
0.0
  0
VERTEX
  5
153
  8
0
 10
539.0606251434656
 20
572.9129492648112
 30
0.0
  0
VERTEX
  5
154
  8
0
 10
538.7446694310461
 20
573.3395142768691
 30
0.0
  0
VERTEX
  5
155
  8
0
 10
538.4475619400894
 20
573.785919522046
 30
0.0
  0
VERTEX
  5
156
  8
0
 10
538.1693026705959
 20
574.2521650003418
 30
0.0
  0
VERTEX
  5
157
  8
0
 10
537.9098916225653
 20
574.7382507117566
 30
0.0
  0
VERTEX
  5
158
  8
0
 10
537.7888041998112
 20
574.9878036439561
 30
0.0
  0
VERTEX
  5
159
  8
0
 10
537.6755288688476
 20
575.2404566125806
 30
0.0
  0
VERTEX
  5
15A
  8
0
 10
537.5700656296744
 20
575.4962096176298
 30
0.0
  0
VERTEX
  5
15B
  8
0
 10
537.4724144822919
 20
575.7550626591039
 30
0.0
  0
VERTEX
  5
15C
  8
0
 10
537.3825754267002
 20
576.0170157370028
 30
0.0
  0
VERTEX
  5
15D
  8
0
 10
537.3005484628989
 20
576.2820688513266
 30
0.0
  0
VERTEX
  5
15E
  8
0
 10
537.2263335908883
 20
576.5502220020751
 30
0.0
  0
VERTEX
  5
15F
  8
0
 10
537.1599308106681
 20
576.8214751892485
 30
0.0
  0
VERTEX
  5
160
  8
0
 10
537.1013401222388
 20
577.0958284128468
 30
0.0
  0
VERTEX
  5
161
  8
0
 10
537.0505615256
 20
577.37328167287
 30
0.0
  0
VERTEX
  5
162
  8
0
 10
537.0075950207518
 20
577.6538349693179
 30
0.0
  0
VERTEX
  5
163
  8
0
 10
536.9724406076939
 20
577.9374883021908
 30
0.0
  0
VERTEX
  5
164
  8
0
 10
536.9450982864269
 20
578.2242416714884
 30
0.0
  0
VERTEX
  5
165
  8
0
 10
536.9255680569503
 20
578.5140950772109
 30
0.0
  0
VERTEX
  5
166
  8
0
 10
536.9138499192644
 20
578.8070485193581
 30
0.0
  0
VERTEX
  5
167
  8
0
 10
536.9099438733691
 20
579.1031019979303
 30
0.0
  0
VERTEX
  5
168
  8
0
 10
536.9170119564177
 20
579.5322710405849
 30
0.0
  0
VERTEX
  5
169
  8
0
 10
536.9382162055635
 20
579.9547440045621
 30
0.0
  0
VERTEX
  5
16A
  8
0
 10
536.9735566208068
 20
580.3705208898614
 30
0.0
  0
VERTEX
  5
16B
  8
0
 10
537.0230332021472
 20
580.7796016964833
 30
0.0
  0
VERTEX
  5
16C
  8
0
 10
537.086645949585
 20
581.1819864244274
 30
0.0
  0
VERTEX
  5
16D
  8
0
 10
537.1643948631199
 20
581.5776750736939
 30
0.0
  0
VERTEX
  5
16E
  8
0
 10
537.2562799427524
 20
581.9666676442826
 30
0.0
  0
VERTEX
  5
16F
  8
0
 10
537.3623011884815
 20
582.3489641361939
 30
0.0
  0
VERTEX
  5
170
  8
0
 10
537.4824586003084
 20
582.7245645494274
 30
0.0
  0
VERTEX
  5
171
  8
0
 10
537.6167521782324
 20
583.0934688839833
 30
0.0
  0
VERTEX
  5
172
  8
0
 10
537.7651819222539
 20
583.4556771398615
 30
0.0
  0
VERTEX
  5
173
  8
0
 10
537.9277478323722
 20
583.811189317062
 30
0.0
  0
VERTEX
  5
174
  8
0
 10
538.1044499085882
 20
584.1600054155848
 30
0.0
  0
VERTEX
  5
175
  8
0
 10
538.2952881509013
 20
584.5021254354301
 30
0.0
  0
VERTEX
  5
176
  8
0
 10
538.5002625593118
 20
584.8375493765977
 30
0.0
  0
VERTEX
  5
177
  8
0
 10
538.7193731338193
 20
585.1662772390878
 30
0.0
  0
VERTEX
  5
178
  8
0
 10
538.9492718350855
 20
585.4864490010452
 30
0.0
  0
VERTEX
  5
179
  8
0
 10
539.186610623771
 20
585.7962046406151
 30
0.0
  0
VERTEX
  5
17A
  8
0
 10
539.4313894998763
 20
586.0955441577976
 30
0.0
  0
VERTEX
  5
17B
  8
0
 10
539.6836084634012
 20
586.3844675525925
 30
0.0
  0
VERTEX
  5
17C
  8
0
 10
539.9432675143457
 20
586.6629748250002
 30
0.0
  0
VERTEX
  5
17D
  8
0
 10
540.21036665271
 20
586.9310659750201
 30
0.0
  0
VERTEX
  5
17E
  8
0
 10
540.4849058784937
 20
587.1887410026529
 30
0.0
  0
VERTEX
  5
17F
  8
0
 10
540.7668851916972
 20
587.4359999078981
 30
0.0
  0
VERTEX
  5
180
  8
0
 10
541.0563045923202
 20
587.6728426907559
 30
0.0
  0
VERTEX
  5
181
  8
0
 10
541.3531640803627
 20
587.8992693512259
 30
0.0
  0
VERTEX
  5
182
  8
0
 10
541.6574636558249
 20
588.1152798893088
 30
0.0
  0
VERTEX
  5
183
  8
0
 10
541.9692033187067
 20
588.320874305004
 30
0.0
  0
VERTEX
  5
184
  8
0
 10
542.2883830690081
 20
588.516052598312
 30
0.0
  0
VERTEX
  5
185
  8
0
 10
542.6150029067292
 20
588.7008147692325
 30
0.0
  0
VERTEX
  5
186
  8
0
 10
542.9490628318699
 20
588.8751608177654
 30
0.0
  0
VERTEX
  5
187
  8
0
 10
543.2905628444303
 20
589.039090743911
 30
0.0
  0
VERTEX
  5
188
  8
0
 10
543.6375189210983
 20
589.192852550583
 30
0.0
  0
VERTEX
  5
189
  8
0
 10
543.987947038562
 20
589.3366942406956
 30
0.0
  0
VERTEX
  5
18A
  8
0
 10
544.3418471968216
 20
589.4706158142486
 30
0.0
  0
VERTEX
  5
18B
  8
0
 10
544.6992193958772
 20
589.5946172712422
 30
0.0
  0
VERTEX
  5
18C
  8
0
 10
545.0600636357285
 20
589.7086986116763
 30
0.0
  0
VERTEX
  5
18D
  8
0
 10
545.4243799163755
 20
589.8128598355509
 30
0.0
  0
VERTEX
  5
18E
  8
0
 10
545.7921682378185
 20
589.9071009428659
 30
0.0
  0
VERTEX
  5
18F
  8
0
 10
546.1634286000572
 20
589.9914219336215
 30
0.0
  0
VERTEX
  5
190
  8
0
 10
546.5381610030918
 20
590.0658228078178
 30
0.0
  0
VERTEX
  5
191
  8
0
 10
546.9163654469221
 20
590.1303035654544
 30
0.0
  0
VERTEX
  5
192
  8
0
 10
547.2980419315484
 20
590.1848642065315
 30
0.0
  0
VERTEX
  5
193
  8
0
 10
547.6831904569704
 20
590.2295047310491
 30
0.0
  0
VERTEX
  5
194
  8
0
 10
548.0718110231883
 20
590.2642251390073
 30
0.0
  0
VERTEX
  5
195
  8
0
 10
548.4639036302018
 20
590.289025430406
 30
0.0
  0
VERTEX
  5
196
  8
0
 10
548.8594682780113
 20
590.3039056052453
 30
0.0
  0
VERTEX
  5
197
  8
0
 10
549.2585049666167
 20
590.308865663525
 30
0.0
  0
VERTEX
  5
198
  8
0
 10
549.8961204584778
 20
590.2964655178257
 30
0.0
  0
VERTEX
  5
199
  8
0
 10
550.5233198279511
 20
590.2592650807276
 30
0.0
  0
VERTEX
  5
19A
  8
0
 10
551.1401030750371
 20
590.1972643522308
 30
0.0
  0
VERTEX
  5
19B
  8
0
 10
551.7464701997357
 20
590.1104633323353
 30
0.0
  0
VERTEX
  5
19C
  8
0
 10
552.3424212020468
 20
589.9988620210411
 30
0.0
  0
VERTEX
  5
19D
  8
0
 10
552.9279560819704
 20
589.8624604183481
 30
0.0
  0
VERTEX
  5
19E
  8
0
 10
553.5030748395066
 20
589.7012585242566
 30
0.0
  0
VERTEX
  5
19F
  8
0
 10
554.0677774746553
 20
589.5152563387662
 30
0.0
  0
VERTEX
  5
1A0
  8
0
 10
554.6220639874166
 20
589.3044538618772
 30
0.0
  0
VERTEX
  5
1A1
  8
0
 10
555.1659343777903
 20
589.0688510935894
 30
0.0
  0
VERTEX
  5
1A2
  8
0
 10
555.6993886457767
 20
588.8084480339029
 30
0.0
  0
VERTEX
  5
1A3
  8
0
 10
556.2224267913755
 20
588.5232446828177
 30
0.0
  0
VERTEX
  5
1A4
  8
0
 10
556.735048814587
 20
588.2132410403337
 30
0.0
  0
VERTEX
  5
1A5
  8
0
 10
557.2372547154109
 20
587.8784371064511
 30
0.0
  0
VERTEX
  5
1A6
  8
0
 10
557.7290444938475
 20
587.5188328811698
 30
0.0
  0
VERTEX
  5
1A7
  8
0
 10
558.2104181498964
 20
587.1344283644897
 30
0.0
  0
VERTEX
  5
1A8
  8
0
 10
557.5120419441087
 20
578.18251518121
 30
0.0
  0
VERTEX
  5
1A9
  8
0
 10
554.3693490180636
 20
578.5634476570942
 30
0.0
  0
VERTEX
  5
1AA
  8
0
 10
553.5757396933049
 20
584.6266228982518
 30
0.0
  0
VERTEX
  5
1AB
  8
0
 10
553.4321460061062
 20
584.8803298792604
 30
0.0
  0
VERTEX
  5
1AC
  8
0
 10
553.2553199284333
 20
585.1335408544414
 30
0.0
  0
VERTEX
  5
1AD
  8
0
 10
553.0452614602863
 20
585.3862558237943
 30
0.0
  0
VERTEX
  5
1AE
  8
0
 10
552.8019706016648
 20
585.6384747873192
 30
0.0
  0
VERTEX
  5
1AF
  8
0
 10
552.5254473525692
 20
585.8901977450162
 30
0.0
  0
VERTEX
  5
1B0
  8
0
 10
552.2156917129992
 20
586.1414246968852
 30
0.0
  0
VERTEX
  5
1B1
  8
0
 10
551.872703682955
 20
586.3921556429261
 30
0.0
  0
VERTEX
  5
1B2
  8
0
 10
551.4964832624366
 20
586.6423905831392
 30
0.0
  0
VERTEX
  5
1B3
  8
0
 10
551.1009186146272
 20
586.8767533368571
 30
0.0
  0
VERTEX
  5
1B4
  8
0
 10
550.9010902666821
 20
586.98221657603
 30
0.0
  0
VERTEX
  5
1B5
  8
0
 10
550.6998979027101
 20
587.0798677234125
 30
0.0
  0
VERTEX
  5
1B6
  8
0
 10
550.497341522711
 20
587.1697067790042
 30
0.0
  0
VERTEX
  5
1B7
  8
0
 10
550.2934211266851
 20
587.2517337428055
 30
0.0
  0
VERTEX
  5
1B8
  8
0
 10
550.0881367146322
 20
587.3259486148163
 30
0.0
  0
VERTEX
  5
1B9
  8
0
 10
549.8814882865524
 20
587.3923513950364
 30
0.0
  0
VERTEX
  5
1BA
  8
0
 10
549.6734758424457
 20
587.4509420834657
 30
0.0
  0
VERTEX
  5
1BB
  8
0
 10
549.464099382312
 20
587.5017206801047
 30
0.0
  0
VERTEX
  5
1BC
  8
0
 10
549.2533589061516
 20
587.5446871849529
 30
0.0
  0
VERTEX
  5
1BD
  8
0
 10
549.041254413964
 20
587.5798415980106
 30
0.0
  0
VERTEX
  5
1BE
  8
0
 10
548.8277859057496
 20
587.6071839192776
 30
0.0
  0
VERTEX
  5
1BF
  8
0
 10
548.6129533815082
 20
587.6267141487541
 30
0.0
  0
VERTEX
  5
1C0
  8
0
 10
548.39675684124
 20
587.63843228644
 30
0.0
  0
VERTEX
  5
1C1
  8
0
 10
548.1791962849447
 20
587.6423383323354
 30
0.0
  0
VERTEX
  5
1C2
  8
0
 10
547.8653485972941
 20
587.6363862623996
 30
0.0
  0
VERTEX
  5
1C3
  8
0
 10
547.5586929941489
 20
587.6185300525926
 30
0.0
  0
VERTEX
  5
1C4
  8
0
 10
547.2592294755095
 20
587.5887697029141
 30
0.0
  0
VERTEX
  5
1C5
  8
0
 10
546.9669580413756
 20
587.5471052133644
 30
0.0
  0
VERTEX
  5
1C6
  8
0
 10
546.6818786917472
 20
587.4935365839431
 30
0.0
  0
VERTEX
  5
1C7
  8
0
 10
546.4039914266248
 20
587.4280638146506
 30
0.0
  0
VERTEX
  5
1C8
  8
0
 10
546.1332962460078
 20
587.3506869054866
 30
0.0
  0
VERTEX
  5
1C9
  8
0
 10
545.8697931498965
 20
587.2614058564511
 30
0.0
  0
VERTEX
  5
1CA
  8
0
 10
545.6134821382909
 20
587.1602206675443
 30
0.0
  0
VERTEX
  5
1CB
  8
0
 10
545.3643632111907
 20
587.0471313387662
 30
0.0
  0
VERTEX
  5
1CC
  8
0
 10
545.1224363685963
 20
586.9221378701167
 30
0.0
  0
VERTEX
  5
1CD
  8
0
 10
544.8877016105074
 20
586.7852402615958
 30
0.0
  0
VERTEX
  5
1CE
  8
0
 10
544.6601589369242
 20
586.6364385132035
 30
0.0
  0
VERTEX
  5
1CF
  8
0
 10
544.4398083478466
 20
586.4757326249398
 30
0.0
  0
VERTEX
  5
1D0
  8
0
 10
544.2266498432747
 20
586.3031225968048
 30
0.0
  0
VERTEX
  5
1D1
  8
0
 10
544.0206834232083
 20
586.1186084287983
 30
0.0
  0
VERTEX
  5
1D2
  8
0
 10
543.8246371197015
 20
585.9224381238346
 30
0.0
  0
VERTEX
  5
1D3
  8
0
 10
543.6412389648078
 20
585.7148596848273
 30
0.0
  0
VERTEX
  5
1D4
  8
0
 10
543.4704889585278
 20
585.4958731117766
 30
0.0
  0
VERTEX
  5
1D5
  8
0
 10
543.312387100861
 20
585.2654784046827
 30
0.0
  0
VERTEX
  5
1D6
  8
0
 10
543.1669333918076
 20
585.0236755635452
 30
0.0
  0
VERTEX
  5
1D7
  8
0
 10
543.0341278313674
 20
584.7704645883643
 30
0.0
  0
VERTEX
  5
1D8
  8
0
 10
542.9139704195406
 20
584.50584547914
 30
0.0
  0
VERTEX
  5
1D9
  8
0
 10
542.8064611563273
 20
584.2298182358724
 30
0.0
  0
VERTEX
  5
1DA
  8
0
 10
542.7116000417273
 20
583.9423828585612
 30
0.0
  0
VERTEX
  5
1DB
  8
0
 10
542.6293870757405
 20
583.6435393472067
 30
0.0
  0
VERTEX
  5
1DC
  8
0
 10
542.5598222583669
 20
583.3332877018088
 30
0.0
  0
VERTEX
  5
1DD
  8
0
 10
542.502905589607
 20
583.0116279223676
 30
0.0
  0
VERTEX
  5
1DE
  8
0
 10
542.4586370694603
 20
582.6785600088829
 30
0.0
  0
VERTEX
  5
1DF
  8
0
 10
542.427016697927
 20
582.3340839613547
 30
0.0
  0
VERTEX
  5
1E0
  8
0
 10
542.408044475007
 20
581.9781997797832
 30
0.0
  0
VERTEX
  5
1E1
  8
0
 10
542.4017204007005
 20
581.6109074641681
 30
0.0
  0
VERTEX
  5
1E2
  8
0
 10
542.4056884473241
 20
581.3820627752865
 30
0.0
  0
VERTEX
  5
1E3
  8
0
 10
542.4175925871955
 20
581.1558221170017
 30
0.0
  0
VERTEX
  5
1E4
  8
0
 10
542.4374328203146
 20
580.9321854893138
 30
0.0
  0
VERTEX
  5
1E5
  8
0
 10
542.4652091466811
 20
580.7111528922228
 30
0.0
  0
VERTEX
  5
1E6
  8
0
 10
542.5009215662953
 20
580.4927243257287
 30
0.0
  0
VERTEX
  5
1E7
  8
0
 10
542.544570079157
 20
580.2768997898313
 30
0.0
  0
VERTEX
  5
1E8
  8
0
 10
542.5961546852664
 20
580.0636792845308
 30
0.0
  0
VERTEX
  5
1E9
  8
0
 10
542.6556753846232
 20
579.8530628098273
 30
0.0
  0
VERTEX
  5
1EA
  8
0
 10
542.7231321772276
 20
579.6450503657206
 30
0.0
  0
VERTEX
  5
1EB
  8
0
 10
542.7985250630798
 20
579.4396419522106
 30
0.0
  0
VERTEX
  5
1EC
  8
0
 10
542.8818540421795
 20
579.2368375692978
 30
0.0
  0
VERTEX
  5
1ED
  8
0
 10
542.9731191145265
 20
579.0366372169817
 30
0.0
  0
VERTEX
  5
1EE
  8
0
 10
543.0723202801214
 20
578.8390408952624
 30
0.0
  0
VERTEX
  5
1EF
  8
0
 10
543.1794575389639
 20
578.6440486041399
 30
0.0
  0
VERTEX
  5
1F0
  8
0
 10
543.2945308910539
 20
578.4516603436144
 30
0.0
  0
VERTEX
  5
1F1
  8
0
 10
543.4175403363918
 20
578.2618761136858
 30
0.0
  0
VERTEX
  5
1F2
  8
0
 10
543.6811674339601
 20
577.8913597601891
 30
0.0
  0
VERTEX
  5
1F3
  8
0
 10
543.9641387588192
 20
577.5337395582196
 30
0.0
  0
VERTEX
  5
1F4
  8
0
 10
544.2664543109697
 20
577.1890155077775
 30
0.0
  0
VERTEX
  5
1F5
  8
0
 10
544.588114090411
 20
576.8571876088627
 30
0.0
  0
VERTEX
  5
1F6
  8
0
 10
544.9291180971434
 20
576.5382558614752
 30
0.0
  0
VERTEX
  5
1F7
  8
0
 10
545.2894663311665
 20
576.2322202656151
 30
0.0
  0
VERTEX
  5
1F8
  8
0
 10
545.6691587924809
 20
575.9390808212823
 30
0.0
  0
VERTEX
  5
1F9
  8
0
 10
546.0681954810861
 20
575.6588375284769
 30
0.0
  0
VERTEX
  5
1FA
  8
0
 10
546.4823603474447
 20
575.3862823260049
 30
0.0
  0
VERTEX
  5
1FB
  8
0
 10
546.9074373420186
 20
575.1162071526729
 30
0.0
  0
VERTEX
  5
1FC
  8
0
 10
547.343426464808
 20
574.8486120084807
 30
0.0
  0
VERTEX
  5
1FD
  8
0
 10
547.790327715813
 20
574.5834968934286
 30
0.0
  0
VERTEX
  5
1FE
  8
0
 10
548.2481410950331
 20
574.3208618075162
 30
0.0
  0
VERTEX
  5
1FF
  8
0
 10
548.7168666024688
 20
574.0607067507436
 30
0.0
  0
VERTEX
  5
200
  8
0
 10
549.6870540019864
 20
573.5478367246183
 30
0.0
  0
VERTEX
  5
201
  8
0
 10
550.6790656579351
 20
573.031990663525
 30
0.0
  0
VERTEX
  5
202
  8
0
 10
551.6710773138836
 20
572.5002724159367
 30
0.0
  0
VERTEX
  5
203
  8
0
 10
552.6630889698322
 20
571.952681981853
 30
0.0
  0
VERTEX
  5
204
  8
0
 10
553.6551006257807
 20
571.3892193612743
 30
0.0
  0
VERTEX
  5
205
  8
0
 10
554.1456503896472
 20
571.1007919723072
 30
0.0
  0
VERTEX
  5
206
  8
0
 10
554.6252880252985
 20
570.8069085192326
 30
0.0
  0
VERTEX
  5
207
  8
0
 10
555.0940135327342
 20
570.50756900205
 30
0.0
  0
VERTEX
  5
208
  8
0
 10
555.5518269119543
 20
570.2027734207597
 30
0.0
  0
VERTEX
  5
209
  8
0
 10
555.9987281629592
 20
569.8925217753618
 30
0.0
  0
VERTEX
  5
20A
  8
0
 10
556.4347172857485
 20
569.5768140658563
 30
0.0
  0
VERTEX
  5
20B
  8
0
 10
556.8597942803226
 20
569.2556502922429
 30
0.0
  0
VERTEX
  5
20C
  8
0
 10
557.273959146681
 20
568.9290304545218
 30
0.0
  0
VERTEX
  5
20D
  8
0
 10
557.6729958352862
 20
568.5895144652734
 30
0.0
  0
VERTEX
  5
20E
  8
0
 10
558.0526882966006
 20
568.2296622370782
 30
0.0
  0
VERTEX
  5
20F
  8
0
 10
558.4130365306239
 20
567.8494737699358
 30
0.0
  0
VERTEX
  5
210
  8
0
 10
558.7540405373563
 20
567.4489490638466
 30
0.0
  0
VERTEX
  5
211
  8
0
 10
559.0757003167976
 20
567.0280881188105
 30
0.0
  0
VERTEX
  5
212
  8
0
 10
559.378015868948
 20
566.5868909348274
 30
0.0
  0
VERTEX
  5
213
  8
0
 10
559.6609871938072
 20
566.1253575118973
 30
0.0
  0
VERTEX
  5
214
  8
0
 10
559.9246142913755
 20
565.6434878500203
 30
0.0
  0
VERTEX
  5
215
  8
0
 10
560.0476237367131
 20
565.3957329389472
 30
0.0
  0
VERTEX
  5
216
  8
0
 10
560.1626970888032
 20
565.1445059870782
 30
0.0
  0
VERTEX
  5
217
  8
0
 10
560.2698343476457
 20
564.8898069944134
 30
0.0
  0
VERTEX
  5
218
  8
0
 10
560.3690355132405
 20
564.6316359609527
 30
0.0
  0
VERTEX
  5
219
  8
0
 10
560.4603005855878
 20
564.3699928866963
 30
0.0
  0
VERTEX
  5
21A
  8
0
 10
560.5436295646874
 20
564.104877771644
 30
0.0
  0
VERTEX
  5
21B
  8
0
 10
560.6190224505394
 20
563.836290615796
 30
0.0
  0
VERTEX
  5
21C
  8
0
 10
560.686479243144
 20
563.5642314191521
 30
0.0
  0
VERTEX
  5
21D
  8
0
 10
560.7459999425009
 20
563.2887001817123
 30
0.0
  0
VERTEX
  5
21E
  8
0
 10
560.7975845486103
 20
563.0096969034769
 30
0.0
  0
VERTEX
  5
21F
  8
0
 10
560.8412330614719
 20
562.7272215844455
 30
0.0
  0
VERTEX
  5
220
  8
0
 10
560.8769454810862
 20
562.4412742246184
 30
0.0
  0
VERTEX
  5
221
  8
0
 10
560.9047218074527
 20
562.1518548239953
 30
0.0
  0
VERTEX
  5
222
  8
0
 10
560.9245620405718
 20
561.8589633825766
 30
0.0
  0
VERTEX
  5
223
  8
0
 10
560.9364661804432
 20
561.5625999003619
 30
0.0
  0
VERTEX
  5
224
  8
0
 10
560.9404342270669
 20
561.2627643773515
 30
0.0
  0
VERTEX
  5
225
  8
0
 10
560.9324981338193
 20
560.8251632356212
 30
0.0
  0
VERTEX
  5
226
  8
0
 10
560.9086898540766
 20
560.3932661609126
 30
0.0
  0
VERTEX
  5
227
  8
0
 10
560.8690093878386
 20
559.9670731532258
 30
0.0
  0
VERTEX
  5
228
  8
0
 10
560.8134567351055
 20
559.5465842125606
 30
0.0
  0
VERTEX
  5
229
  8
0
 10
560.7420318958771
 20
559.1317993389171
 30
0.0
  0
VERTEX
  5
22A
  8
0
 10
560.6547348701538
 20
558.7227185322953
 30
0.0
  0
VERTEX
  5
22B
  8
0
 10
560.551565657935
 20
558.3193417926952
 30
0.0
  0
VERTEX
  5
22C
  8
0
 10
560.4325242592213
 20
557.9216691201168
 30
0.0
  0
VERTEX
  5
22D
  8
0
 10
560.2976106740123
 20
557.5297005145601
 30
0.0
  0
VERTEX
  5
22E
  8
0
 10
560.1468249023081
 20
557.1434359760251
 30
0.0
  0
VERTEX
  5
22F
  8
0
 10
559.9801669441086
 20
556.7628755045118
 30
0.0
  0
VERTEX
  5
230
  8
0
 10
559.7976367994141
 20
556.3880191000203
 30
0.0
  0
VERTEX
  5
231
  8
0
 10
559.5992344682244
 20
556.0188667625504
 30
0.0
  0
VERTEX
  5
232
  8
0
 10
559.3849599505395
 20
555.6554184921022
 30
0.0
  0
VERTEX
  5
233
  8
0
 10
559.1548132463594
 20
555.2976742886758
 30
0.0
  0
VERTEX
  5
234
  8
0
 10
558.9087943556842
 20
554.945634152271
 30
0.0
  0
VERTEX
  5
235
  8
0
 10
558.6502513178527
 20
554.6017161112994
 30
0.0
  0
VERTEX
  5
236
  8
0
 10
558.3825321722036
 20
554.2683381941722
 30
0.0
  0
VERTEX
  5
237
  8
0
 10
558.1056369187369
 20
553.9455004008894
 30
0.0
  0
VERTEX
  5
238
  8
0
 10
557.8195655574527
 20
553.6332027314511
 30
0.0
  0
VERTEX
  5
239
  8
0
 10
557.524318088351
 20
553.3314451858572
 30
0.0
  0
VERTEX
  5
23A
  8
0
 10
557.2198945114319
 20
553.0402277641078
 30
0.0
  0
VERTEX
  5
23B
  8
0
 10
556.9062948266951
 20
552.7595504662029
 30
0.0
  0
VERTEX
  5
23C
  8
0
 10
556.5835190341409
 20
552.4894132921424
 30
0.0
  0
VERTEX
  5
23D
  8
0
 10
556.2515671337692
 20
552.2298162419264
 30
0.0
  0
VERTEX
  5
23E
  8
0
 10
555.9104391255798
 20
551.9807593155549
 30
0.0
  0
VERTEX
  5
23F
  8
0
 10
555.560135009573
 20
551.7422425130277
 30
0.0
  0
VERTEX
  5
240
  8
0
 10
555.2006547857485
 20
551.514265834345
 30
0.0
  0
VERTEX
  5
241
  8
0
 10
554.8319984541066
 20
551.2968292795068
 30
0.0
  0
VERTEX
  5
242
  8
0
 10
554.4541660146473
 20
551.0899328485132
 30
0.0
  0
VERTEX
  5
243
  8
0
 10
554.0671574673704
 20
550.8935765413638
 30
0.0
  0
VERTEX
  5
244
  8
0
 10
553.6709728122759
 20
550.7077603580589
 30
0.0
  0
VERTEX
  5
245
  8
0
 10
553.2684640828747
 20
550.5328563029694
 30
0.0
  0
VERTEX
  5
246
  8
0
 10
552.8624833126778
 20
550.3692363804664
 30
0.0
  0
VERTEX
  5
247
  8
0
 10
552.453030501685
 20
550.2169005905499
 30
0.0
  0
VERTEX
  5
248
  8
0
 10
552.0401056498965
 20
550.0758489332196
 30
0.0
  0
VERTEX
  5
249
  8
0
 10
551.6237087573122
 20
549.9460814084758
 30
0.0
  0
VERTEX
  5
24A
  8
0
 10
551.203839823932
 20
549.8275980163185
 30
0.0
  0
VERTEX
  5
24B
  8
0
 10
550.7804988497558
 20
549.7203987567476
 30
0.0
  0
VERTEX
  5
24C
  8
0
 10
550.3536858347838
 20
549.624483629763
 30
0.0
  0
VERTEX
  5
24D
  8
0
 10
549.9234007790162
 20
549.5398526353648
 30
0.0
  0
VERTEX
  5
24E
  8
0
 10
549.4896436824529
 20
549.4665057735531
 30
0.0
  0
VERTEX
  5
24F
  8
0
 10
549.0524145450936
 20
549.4044430443279
 30
0.0
  0
VERTEX
  5
250
  8
0
 10
548.6117133669384
 20
549.353664447689
 30
0.0
  0
VERTEX
  5
251
  8
0
 10
548.1675401479874
 20
549.3141699836366
 30
0.0
  0
VERTEX
  5
252
  8
0
 10
547.7198948882406
 20
549.2859596521705
 30
0.0
  0
VERTEX
  5
253
  8
0
 10
547.268777587698
 20
549.269033453291
 30
0.0
  0
VERTEX
  5
254
  8
0
 10
546.8141882463594
 20
549.2633913869977
 30
0.0
  0
VERTEX
  5
255
  8
0
 10
546.4031854171542
 20
549.2685374474629
 30
0.0
  0
VERTEX
  5
256
  8
0
 10
545.995530627288
 20
549.2839756288586
 30
0.0
  0
VERTEX
  5
257
  8
0
 10
545.5912238767604
 20
549.3097059311847
 30
0.0
  0
VERTEX
  5
258
  8
0
 10
545.1902651655719
 20
549.3457283544413
 30
0.0
  0
VERTEX
  5
259
  8
0
 10
544.792654493722
 20
549.3920428986285
 30
0.0
  0
VERTEX
  5
25A
  8
0
 10
544.3983918612108
 20
549.448649563746
 30
0.0
  0
VERTEX
  5
25B
  8
0
 10
544.0074772680387
 20
549.515548349794
 30
0.0
  0
VERTEX
  5
25C
  8
0
 10
543.6199107142052
 20
549.5927392567726
 30
0.0
  0
VERTEX
  5
25D
  8
0
 10
543.2356921997107
 20
549.6802222846816
 30
0.0
  0
VERTEX
  5
25E
  8
0
 10
542.8548217245549
 20
549.777997433521
 30
0.0
  0
VERTEX
  5
25F
  8
0
 10
542.4772992887381
 20
549.8860647032909
 30
0.0
  0
VERTEX
  5
260
  8
0
 10
542.10312489226
 20
550.0044240939912
 30
0.0
  0
VERTEX
  5
261
  8
0
 10
541.7322985351204
 20
550.1330756056221
 30
0.0
  0
VERTEX
  5
262
  8
0
 10
541.3648202173201
 20
550.2720192381835
 30
0.0
  0
VERTEX
  5
263
  8
0
 10
541.0006899388584
 20
550.4212549916751
 30
0.0
  0
VERTEX
  5
264
  8
0
 10
540.6399076997357
 20
550.5807828660974
 30
0.0
  0
VERTEX
  5
265
  8
0
 10
540.2856975378336
 20
550.7481228323102
 30
0.0
  0
VERTEX
  5
266
  8
0
 10
539.9412834910339
 20
550.9207948611738
 30
0.0
  0
VERTEX
  5
267
  8
0
 10
539.6066655593365
 20
551.0987989526881
 30
0.0
  0
VERTEX
  5
268
  8
0
 10
539.281843742742
 20
551.282135106853
 30
0.0
  0
VERTEX
  5
269
  8
0
 10
538.9668180412498
 20
551.4708033236686
 30
0.0
  0
VERTEX
  5
26A
  8
0
 10
538.6615884548603
 20
551.6648036031352
 30
0.0
  0
VERTEX
  5
26B
  8
0
 10
538.3661549835731
 20
551.8641359452522
 30
0.0
  0
VERTEX
  5
26C
  8
0
 10
538.0805176273884
 20
552.0688003500202
 30
0.0
  0
VERTEX
  5
26D
  8
0
 10
537.804676386306
 20
552.2787968174388
 30
0.0
  0
VERTEX
  5
26E
  8
0
 10
537.5386312603265
 20
552.4941253475081
 30
0.0
  0
VERTEX
  5
26F
  8
0
 10
537.2823822494493
 20
552.714785940228
 30
0.0
  0
VERTEX
  5
270
  8
0
 10
537.0359293536744
 20
552.9407785955989
 30
0.0
  0
VERTEX
  5
271
  8
0
 10
536.7992725730023
 20
553.1721033136203
 30
0.0
  0
VERTEX
  5
272
  8
0
 10
536.5724119074325
 20
553.4087600942926
 30
0.0
  0
VERTEX
  5
273
  8
0
 10
536.3553473569652
 20
553.6507489376156
 30
0.0
  0
SEQEND
  5
4BC
  8
0
  0
POLYLINE
  5
6E
  8
0
 66
     1
 10
0.0
 20
0.0
 30
0.0
 70
     1
  0
VERTEX
  5
274
  8
0
 10
562.1784647736906
 20
589.5152563387662
 30
0.0
  0
VERTEX
  5
275
  8
0
 10
597.4464631659737
 20
589.5152563387662
 30
0.0
  0
VERTEX
  5
276
  8
0
 10
596.3671544843016
 20
578.7856582680266
 30
0.0
  0
VERTEX
  5
277
  8
0
 10
593.351439050218
 20
579.261823862882
 30
0.0
  0
VERTEX
  5
278
  8
0
 10
592.1451528765846
 20
586.5947740236537
 30
0.0
  0
VERTEX
  5
279
  8
0
 10
582.4631191145266
 20
586.5947740236537
 30
0.0
  0
VERTEX
  5
27A
  8
0
 10
582.4631191145266
 20
553.6441148596665
 30
0.0
  0
VERTEX
  5
27B
  8
0
 10
588.3358281177422
 20
552.5648061779945
 30
0.0
  0
VERTEX
  5
27C
  8
0
 10
587.8914068958771
 20
550.0252563387662
 30
0.0
  0
VERTEX
  5
27D
  8
0
 10
570.7811898540765
 20
550.0252563387662
 30
0.0
  0
VERTEX
  5
27E
  8
0
 10
571.003400465009
 20
552.3743399400524
 30
0.0
  0
VERTEX
  5
27F
  8
0
 10
576.3681995003788
 20
553.866325470599
 30
0.0
  0
VERTEX
  5
280
  8
0
 10
576.3681995003788
 20
586.5947740236537
 30
0.0
  0
VERTEX
  5
281
  8
0
 10
567.0036094682245
 20
586.5947740236537
 30
0.0
  0
VERTEX
  5
282
  8
0
 10
565.3211576997356
 20
578.8808913869977
 30
0.0
  0
VERTEX
  5
283
  8
0
 10
562.4324197576135
 20
579.2935682358723
 30
0.0
  0
SEQEND
  5
4BD
  8
0
  0
POLYLINE
  5
6F
  8
0
 66
     1
 10
0.0
 20
0.0
 30
0.0
 70
     1
  0
VERTEX
  5
284
  8
0
 10
549.9686261781725
 20
768.2685919405351
 30
0.0
 42
-0.4179445424574625
  0
VERTEX
  5
285
  8
0
 10
556.3728083273061
 20
768.2278558650908
 30
0.0
 42
-0.4179445424574627
  0
VERTEX
  5
286
  8
0
 10
556.2506066935119
 20
761.8247101391356
 30
0.0
  0
VERTEX
  5
287
  8
0
 10
556.2506066935119
 20
755.7124737419346
 30
0.0
 42
-0.4179445424574639
  0
VERTEX
  5
288
  8
0
 10
556.372808327306
 20
749.3093280159787
 30
0.0
 42
-0.4179445424574632
  0
VERTEX
  5
289
  8
0
 10
549.9686261781725
 20
749.2685919405349
 30
0.0
  0
VERTEX
  5
28A
  8
0
 10
512.6145677241909
 20
749.2685919405349
 30
0.0
 42
-0.9999999999999999
  0
VERTEX
  5
28B
  8
0
 10
506.2506066935121
 20
755.6325529712136
 30
0.0
  0
VERTEX
  5
28C
  8
0
 10
506.2506066935121
 20
761.9046309098561
 30
0.0
 42
-0.9999999999999999
  0
VERTEX
  5
28D
  8
0
 10
512.6145677241909
 20
768.2685919405352
 30
0.0
  0
SEQEND
  5
4BE
  8
0
  0
POLYLINE
  5
70
  8
0
 66
     1
 10
0.0
 20
0.0
 30
0.0
 70
     1
  0
VERTEX
  5
28E
  8
0
 10
489.7413135144225
 20
728.298682624789
 30
0.0
  0
VERTEX
  5
28F
  8
0
 10
572.8410661937296
 20
728.298682624789
 30
0.0
  0
VERTEX
  5
290
  8
0
 10
572.8410661937296
 20
789.2385012562811
 30
0.0
  0
VERTEX
  5
291
  8
0
 10
489.7413135144225
 20
789.2385012562811
 30
0.0
  0
SEQEND
  5
4BF
  8
0
  0
POLYLINE
  5
71
  8
0
 66
     1
 10
0.0
 20
0.0
 30
0.0
 70
     1
  0
VERTEX
  5
292
  8
0
 10
499.9272288233971
 20
688.0139768856261
 30
0.0
 42
-0.4142135623730981
  0
VERTEX
  5
293
  8
0
 10
506.2911898540759
 20
688.0139768856261
 30
0.0
 42
-0.4142135623730973
  0
VERTEX
  5
294
  8
0
 10
506.2911898540759
 20
681.6500158549471
 30
0.0
  0
VERTEX
  5
295
  8
0
 10
506.2911898540759
 20
638.0139768856253
 30
0.0
  0
VERTEX
  5
296
  8
0
 10
516.2911898540758
 20
628.0139768856252
 30
0.0
  0
VERTEX
  5
297
  8
0
 10
546.2911898540758
 20
628.0139768856252
 30
0.0
  0
VERTEX
  5
298
  8
0
 10
556.2911898540759
 20
638.0139768856252
 30
0.0
  0
VERTEX
  5
299
  8
0
 10
556.2911898540759
 20
681.6500158549472
 30
0.0
 42
-0.4142135623730988
  0
VERTEX
  5
29A
  8
0
 10
556.2911898540759
 20
688.0139768856261
 30
0.0
 42
-0.4142135623730951
  0
VERTEX
  5
29B
  8
0
 10
562.6551508847549
 20
688.0139768856261
 30
0.0
  0
VERTEX
  5
29C
  8
0
 10
572.6551508847549
 20
688.0139768856261
 30
0.0
  0
VERTEX
  5
29D
  8
0
 10
572.6551508847549
 20
695.0554320621258
 30
0.0
  0
VERTEX
  5
29E
  8
0
 10
489.9272288233969
 20
695.0554320621259
 30
0.0
  0
VERTEX
  5
29F
  8
0
 10
489.9272288233973
 20
688.0139768856261
 30
0.0
  0
SEQEND
  5
4C0
  8
0
  0
POLYLINE
  5
72
  8
0
 66
     1
 10
0.0
 20
0.0
 30
0.0
 70
     1
  0
VERTEX
  5
2A0
  8
0
 10
528.1551508847547
 20
647.0139768856255
 30
0.0
  0
VERTEX
  5
2A1
  8
0
 10
534.4272288233967
 20
647.0139768856257
 30
0.0
 42
0.4142135623730945
  0
VERTEX
  5
2A2
  8
0
 10
540.7911898540758
 20
647.0139768856255
 30
0.0
 42
0.4142135623730864
  0
VERTEX
  5
2A3
  8
0
 10
540.7911898540758
 20
653.3779379163045
 30
0.0
  0
VERTEX
  5
2A4
  8
0
 10
540.7911898540758
 20
665.650015854947
 30
0.0
 42
0.414213562373093
  0
VERTEX
  5
2A5
  8
0
 10
540.7911898540758
 20
672.0139768856259
 30
0.0
 42
0.4142135623730954
  0
VERTEX
  5
2A6
  8
0
 10
534.427228823397
 20
672.0139768856259
 30
0.0
  0
VERTEX
  5
2A7
  8
0
 10
528.1551508847548
 20
672.0139768856259
 30
0.0
 42
0.4142135623730957
  0
VERTEX
  5
2A8
  8
0
 10
521.7911898540758
 20
672.013976885626
 30
0.0
 42
0.4142135623730983
  0
VERTEX
  5
2A9
  8
0
 10
521.7911898540758
 20
665.650015854947
 30
0.0
  0
VERTEX
  5
2AA
  8
0
 10
521.7911898540758
 20
653.3779379163046
 30
0.0
 42
0.4142135623730963
  0
VERTEX
  5
2AB
  8
0
 10
521.7911898540758
 20
647.0139768856255
 30
0.0
 42
0.4142135623730975
  0
SEQEND
  5
4C1
  8
0
  0
POLYLINE
  5
73
  8
0
 66
     1
 10
0.0
 20
0.0
 30
0.0
 70
     1
  0
VERTEX
  5
2AC
  8
0
 10
449.2212846391858
 20
516.3860852642748
 30
0.0
  0
VERTEX
  5
2AD
  8
0
 10
614.2305591651542
 20
516.3860852642748
 30
0.0
  0
VERTEX
  5
2AE
  8
0
 10
614.2305591651542
 20
822.0590036484459
 30
0.0
  0
VERTEX
  5
2AF
  8
0
 10
449.2212846391858
 20
822.0590036484459
 30
0.0
  0
SEQEND
  5
4C2
  8
0
  0
POLYLINE
  5
75
  8
POCHE_8MM
 66
     1
 10
0.0
 20
0.0
 30
0.0
 70
     1
  0
VERTEX
  5
2B0
  8
POCHE_8MM
 10
188.105625096729
 20
960.8634503911243
 30
0.0
  0
VERTEX
  5
2B1
  8
POCHE_8MM
 10
207.105625096729
 20
960.8634503911243
 30
0.0
  0
VERTEX
  5
2B2
  8
POCHE_8MM
 10
207.105625096729
 20
1264.863450391124
 30
0.0
  0
VERTEX
  5
2B3
  8
POCHE_8MM
 10
188.105625096729
 20
1264.863450391124
 30
0.0
  0
SEQEND
  5
4C3
  8
POCHE_8MM
  0
POLYLINE
  5
76
  8
POCHE_8MM
 66
     1
 10
0.0
 20
0.0
 30
0.0
 70
     1
  0
VERTEX
  5
2B4
  8
POCHE_8MM
 10
188.105625096729
 20
480.8635754108033
 30
0.0
  0
VERTEX
  5
2B5
  8
POCHE_8MM
 10
207.105625096729
 20
480.8635754108033
 30
0.0
  0
VERTEX
  5
2B6
  8
POCHE_8MM
 10
207.105625096729
 20
784.8635754108033
 30
0.0
  0
VERTEX
  5
2B7
  8
POCHE_8MM
 10
188.105625096729
 20
784.8635754108033
 30
0.0
  0
SEQEND
  5
4C4
  8
POCHE_8MM
  0
POLYLINE
  5
77
  8
POCHE_8MM
 66
     1
 10
0.0
 20
0.0
 30
0.0
 70
     1
  0
VERTEX
  5
2B8
  8
POCHE_8MM
 10
599.8943749032616
 20
422.6910755775469
 30
0.0
  0
VERTEX
  5
2B9
  8
POCHE_8MM
 10
2405.894374903262
 20
422.6910755775469
 30
0.0
  0
VERTEX
  5
2BA
  8
POCHE_8MM
 10
2405.894374903262
 20
441.6910755775469
 30
0.0
  0
VERTEX
  5
2BB
  8
POCHE_8MM
 10
599.8943749032616
 20
441.6910755775469
 30
0.0
  0
SEQEND
  5
4C5
  8
POCHE_8MM
  0
POLYLINE
  5
78
  8
POCHE_8MM
 66
     1
 10
0.0
 20
0.0
 30
0.0
 70
     1
  0
VERTEX
  5
2BC
  8
POCHE_8MM
 10
395.8550067949977
 20
960.8634503911243
 30
0.0
  0
VERTEX
  5
2BD
  8
POCHE_8MM
 10
414.8550067949977
 20
960.8634503911243
 30
0.0
  0
VERTEX
  5
2BE
  8
POCHE_8MM
 10
414.8550067949977
 20
1264.863450391124
 30
0.0
  0
VERTEX
  5
2BF
  8
POCHE_8MM
 10
395.8550067949977
 20
1264.863450391124
 30
0.0
  0
SEQEND
  5
4C6
  8
POCHE_8MM
  0
POLYLINE
  5
79
  8
POCHE_8MM
 66
     1
 10
0.0
 20
0.0
 30
0.0
 70
     1
  0
VERTEX
  5
2C0
  8
POCHE_8MM
 10
395.8550067949977
 20
480.8635754108033
 30
0.0
  0
VERTEX
  5
2C1
  8
POCHE_8MM
 10
414.8550067949977
 20
480.8635754108033
 30
0.0
  0
VERTEX
  5
2C2
  8
POCHE_8MM
 10
414.8550067949977
 20
784.8635754108033
 30
0.0
  0
VERTEX
  5
2C3
  8
POCHE_8MM
 10
395.8550067949977
 20
784.8635754108033
 30
0.0
  0
SEQEND
  5
4C7
  8
POCHE_8MM
  0
POLYLINE
  5
7A
  8
POCHE_8MM
 66
     1
 10
0.0
 20
0.0
 30
0.0
 70
     1
  0
VERTEX
  5
2C4
  8
POCHE_8MM
 10
599.8943749032616
 20
188.9730211669958
 30
0.0
  0
VERTEX
  5
2C5
  8
POCHE_8MM
 10
2405.894374903262
 20
188.9730211669958
 30
0.0
  0
VERTEX
  5
2C6
  8
POCHE_8MM
 10
2405.894374903262
 20
207.9730211669958
 30
0.0
  0
VERTEX
  5
2C7
  8
POCHE_8MM
 10
599.8943749032616
 20
207.9730211669958
 30
0.0
  0
SEQEND
  5
4C8
  8
POCHE_8MM
  0
POLYLINE
  5
7C
  8
DECOUPE_INTERNE
 66
     1
 10
0.0
 20
0.0
 30
0.0
 70
     1
  0
VERTEX
  5
2C8
  8
DECOUPE_INTERNE
 10
731.7049329521233
 20
468.8546040194258
 30
0.0
 42
-0.7585563082501033
  0
VERTEX
  5
2C9
  8
DECOUPE_INTERNE
 10
739.2583359339358
 20
473.1046040194258
 30
0.0
  0
VERTEX
  5
2CA
  8
DECOUPE_INTERNE
 10
1166.53041387258
 20
473.1046040194258
 30
0.0
 42
-0.7585563082501046
  0
VERTEX
  5
2CB
  8
DECOUPE_INTERNE
 10
1174.083816854392
 20
468.8546040194258
 30
0.0
 42
-0.7585563082501086
  0
VERTEX
  5
2CC
  8
DECOUPE_INTERNE
 10
1166.53041387258
 20
464.6046040194261
 30
0.0
  0
VERTEX
  5
2CD
  8
DECOUPE_INTERNE
 10
739.2583359339358
 20
464.6046040194261
 30
0.0
 42
-0.7585563082501053
  0
SEQEND
  5
4C9
  8
DECOUPE_INTERNE
  0
POLYLINE
  5
7D
  8
DECOUPE_INTERNE
 66
     1
 10
0.0
 20
0.0
 30
0.0
 70
     1
  0
VERTEX
  5
2CE
  8
DECOUPE_INTERNE
 10
568.258335933935
 20
389.3546040194269
 30
0.0
 42
-0.9999999999999998
  0
VERTEX
  5
2CF
  8
DECOUPE_INTERNE
 10
561.8943749032561
 20
395.7185650501061
 30
0.0
  0
VERTEX
  5
2D0
  8
DECOUPE_INTERNE
 10
561.894374903256
 20
401.9906429887482
 30
0.0
 42
-0.9999999999999998
  0
VERTEX
  5
2D1
  8
DECOUPE_INTERNE
 10
568.258335933935
 20
408.3546040194266
 30
0.0
  0
VERTEX
  5
2D2
  8
DECOUPE_INTERNE
 10
580.5304139061049
 20
408.3546040529542
 30
0.0
 42
-0.9999999894632876
  0
VERTEX
  5
2D3
  8
DECOUPE_INTERNE
 10
586.894374903256
 20
401.9906429887482
 30
0.0
  0
VERTEX
  5
2D4
  8
DECOUPE_INTERNE
 10
586.8943749032561
 20
395.7185650501061
 30
0.0
 42
-0.9999999999999982
  0
VERTEX
  5
2D5
  8
DECOUPE_INTERNE
 10
580.5304138725772
 20
389.3546040194269
 30
0.0
  0
SEQEND
  5
4CA
  8
DECOUPE_INTERNE
  0
POLYLINE
  5
7E
  8
DECOUPE_INTERNE
 66
     1
 10
0.0
 20
0.0
 30
0.0
 70
     1
  0
VERTEX
  5
2D6
  8
DECOUPE_INTERNE
 10
568.258335933935
 20
309.3546040194271
 30
0.0
  0
VERTEX
  5
2D7
  8
DECOUPE_INTERNE
 10
580.5304138725772
 20
309.3546040194271
 30
0.0
 42
0.414213562373093
  0
VERTEX
  5
2D8
  8
DECOUPE_INTERNE
 10
586.8943749032561
 20
309.3546040194271
 30
0.0
 42
0.4142135623730954
  0
VERTEX
  5
2D9
  8
DECOUPE_INTERNE
 10
586.894374903256
 20
315.7185650501061
 30
0.0
  0
VERTEX
  5
2DA
  8
DECOUPE_INTERNE
 10
586.894374903256
 20
321.9906429887482
 30
0.0
 42
0.4142135623730957
  0
VERTEX
  5
2DB
  8
DECOUPE_INTERNE
 10
586.8943749032561
 20
328.3546040194271
 30
0.0
 42
0.4142135623730983
  0
VERTEX
  5
2DC
  8
DECOUPE_INTERNE
 10
580.5304138725772
 20
328.3546040194271
 30
0.0
  0
VERTEX
  5
2DD
  8
DECOUPE_INTERNE
 10
568.258335933935
 20
328.3546040194271
 30
0.0
 42
0.4142135623730963
  0
VERTEX
  5
2DE
  8
DECOUPE_INTERNE
 10
561.894374903256
 20
328.3546040194271
 30
0.0
 42
0.4142135623730975
  0
VERTEX
  5
2DF
  8
DECOUPE_INTERNE
 10
561.894374903256
 20
321.9906429887483
 30
0.0
  0
VERTEX
  5
2E0
  8
DECOUPE_INTERNE
 10
561.8943749032561
 20
315.7185650501061
 30
0.0
 42
0.4142135623730945
  0
VERTEX
  5
2E1
  8
DECOUPE_INTERNE
 10
561.894374903256
 20
309.3546040194271
 30
0.0
 42
0.4142135623730864
  0
SEQEND
  5
4CB
  8
DECOUPE_INTERNE
  0
POLYLINE
  5
7F
  8
DECOUPE_INTERNE
 66
     1
 10
0.0
 20
0.0
 30
0.0
 70
     1
  0
VERTEX
  5
2E2
  8
DECOUPE_INTERNE
 10
677.8943749032564
 20
358.8546040194271
 30
0.0
 42
0.4142135623730951
  0
VERTEX
  5
2E3
  8
DECOUPE_INTERNE
 10
667.8943749032564
 20
348.8546040194271
 30
0.0
 42
0.4142135623730951
  0
VERTEX
  5
2E4
  8
DECOUPE_INTERNE
 10
677.8943749032564
 20
338.8546040194271
 30
0.0
 42
0.4142135623730951
  0
VERTEX
  5
2E5
  8
DECOUPE_INTERNE
 10
687.8943749032566
 20
348.8546040194271
 30
0.0
 42
0.4142135623730951
  0
SEQEND
  5
4CC
  8
DECOUPE_INTERNE
  0
POLYLINE
  5
80
  8
DECOUPE_INTERNE
 66
     1
 10
0.0
 20
0.0
 30
0.0
 70
     1
  0
VERTEX
  5
2E6
  8
DECOUPE_INTERNE
 10
827.8943749032572
 20
358.8546040194271
 30
0.0
 42
0.4142135623730951
  0
VERTEX
  5
2E7
  8
DECOUPE_INTERNE
 10
817.8943749032572
 20
348.8546040194271
 30
0.0
 42
0.4142135623730951
  0
VERTEX
  5
2E8
  8
DECOUPE_INTERNE
 10
827.8943749032572
 20
338.8546040194271
 30
0.0
 42
0.4142135623730951
  0
VERTEX
  5
2E9
  8
DECOUPE_INTERNE
 10
837.8943749032574
 20
348.8546040194271
 30
0.0
 42
0.4142135623730951
  0
SEQEND
  5
4CD
  8
DECOUPE_INTERNE
  0
POLYLINE
  5
81
  8
DECOUPE_INTERNE
 66
     1
 10
0.0
 20
0.0
 30
0.0
 70
     1
  0
VERTEX
  5
2EA
  8
DECOUPE_INTERNE
 10
1277.894374903259
 20
358.8546040194271
 30
0.0
 42
0.4142135623730951
  0
VERTEX
  5
2EB
  8
DECOUPE_INTERNE
 10
1267.894374903259
 20
348.8546040194271
 30
0.0
 42
0.4142135623730951
  0
VERTEX
  5
2EC
  8
DECOUPE_INTERNE
 10
1277.894374903259
 20
338.8546040194271
 30
0.0
 42
0.4142135623730951
  0
VERTEX
  5
2ED
  8
DECOUPE_INTERNE
 10
1287.894374903259
 20
348.8546040194271
 30
0.0
 42
0.4142135623730951
  0
SEQEND
  5
4CE
  8
DECOUPE_INTERNE
  0
POLYLINE
  5
82
  8
DECOUPE_INTERNE
 66
     1
 10
0.0
 20
0.0
 30
0.0
 70
     1
  0
VERTEX
  5
2EE
  8
DECOUPE_INTERNE
 10
1727.894374903261
 20
358.8546040194271
 30
0.0
 42
0.4142135623730951
  0
VERTEX
  5
2EF
  8
DECOUPE_INTERNE
 10
1717.894374903261
 20
348.8546040194271
 30
0.0
 42
0.4142135623730951
  0
VERTEX
  5
2F0
  8
DECOUPE_INTERNE
 10
1727.894374903261
 20
338.8546040194271
 30
0.0
 42
0.4142135623730951
  0
VERTEX
  5
2F1
  8
DECOUPE_INTERNE
 10
1737.894374903261
 20
348.8546040194271
 30
0.0
 42
0.4142135623730951
  0
SEQEND
  5
4CF
  8
DECOUPE_INTERNE
  0
POLYLINE
  5
83
  8
DECOUPE_INTERNE
 66
     1
 10
0.0
 20
0.0
 30
0.0
 70
     1
  0
VERTEX
  5
2F2
  8
DECOUPE_INTERNE
 10
1427.894374903259
 20
358.8546040194271
 30
0.0
 42
0.4142135623730951
  0
VERTEX
  5
2F3
  8
DECOUPE_INTERNE
 10
1417.894374903259
 20
348.8546040194271
 30
0.0
 42
0.4142135623730951
  0
VERTEX
  5
2F4
  8
DECOUPE_INTERNE
 10
1427.894374903259
 20
338.8546040194271
 30
0.0
 42
0.4142135623730951
  0
VERTEX
  5
2F5
  8
DECOUPE_INTERNE
 10
1437.894374903259
 20
348.8546040194271
 30
0.0
 42
0.4142135623730951
  0
SEQEND
  5
4D0
  8
DECOUPE_INTERNE
  0
POLYLINE
  5
84
  8
DECOUPE_INTERNE
 66
     1
 10
0.0
 20
0.0
 30
0.0
 70
     1
  0
VERTEX
  5
2F6
  8
DECOUPE_INTERNE
 10
1502.894374903259
 20
343.8546040194271
 30
0.0
 42
0.4142135623730951
  0
VERTEX
  5
2F7
  8
DECOUPE_INTERNE
 10
1477.894374903259
 20
318.8546040194271
 30
0.0
 42
0.4142135623730951
  0
VERTEX
  5
2F8
  8
DECOUPE_INTERNE
 10
1502.894374903259
 20
293.8546040194271
 30
0.0
 42
0.4142135623730951
  0
VERTEX
  5
2F9
  8
DECOUPE_INTERNE
 10
1527.894374903259
 20
318.8546040194271
 30
0.0
 42
0.4142135623730951
  0
SEQEND
  5
4D1
  8
DECOUPE_INTERNE
  0
POLYLINE
  5
85
  8
DECOUPE_INTERNE
 66
     1
 10
0.0
 20
0.0
 30
0.0
 70
     1
  0
VERTEX
  5
2FA
  8
DECOUPE_INTERNE
 10
977.894374903258
 20
358.8546040194271
 30
0.0
 42
0.4142135623730951
  0
VERTEX
  5
2FB
  8
DECOUPE_INTERNE
 10
967.894374903258
 20
348.8546040194271
 30
0.0
 42
0.4142135623730951
  0
VERTEX
  5
2FC
  8
DECOUPE_INTERNE
 10
977.894374903258
 20
338.8546040194271
 30
0.0
 42
0.4142135623730951
  0
VERTEX
  5
2FD
  8
DECOUPE_INTERNE
 10
987.894374903258
 20
348.8546040194271
 30
0.0
 42
0.4142135623730951
  0
SEQEND
  5
4D2
  8
DECOUPE_INTERNE
  0
POLYLINE
  5
86
  8
DECOUPE_INTERNE
 66
     1
 10
0.0
 20
0.0
 30
0.0
 70
     1
  0
VERTEX
  5
2FE
  8
DECOUPE_INTERNE
 10
1127.894374903259
 20
358.8546040194271
 30
0.0
 42
0.4142135623730951
  0
VERTEX
  5
2FF
  8
DECOUPE_INTERNE
 10
1117.894374903259
 20
348.8546040194271
 30
0.0
 42
0.4142135623730951
  0
VERTEX
  5
300
  8
DECOUPE_INTERNE
 10
1127.894374903259
 20
338.8546040194271
 30
0.0
 42
0.4142135623730951
  0
VERTEX
  5
301
  8
DECOUPE_INTERNE
 10
1137.894374903259
 20
348.8546040194271
 30
0.0
 42
0.4142135623730951
  0
SEQEND
  5
4D3
  8
DECOUPE_INTERNE
  0
POLYLINE
  5
87
  8
DECOUPE_INTERNE
 66
     1
 10
0.0
 20
0.0
 30
0.0
 70
     1
  0
VERTEX
  5
302
  8
DECOUPE_INTERNE
 10
1577.894374903259
 20
358.8546040194271
 30
0.0
 42
0.4142135623730951
  0
VERTEX
  5
303
  8
DECOUPE_INTERNE
 10
1567.894374903259
 20
348.8546040194271
 30
0.0
 42
0.4142135623730951
  0
VERTEX
  5
304
  8
DECOUPE_INTERNE
 10
1577.894374903259
 20
338.8546040194271
 30
0.0
 42
0.4142135623730951
  0
VERTEX
  5
305
  8
DECOUPE_INTERNE
 10
1587.894374903259
 20
348.8546040194271
 30
0.0
 42
0.4142135623730951
  0
SEQEND
  5
4D4
  8
DECOUPE_INTERNE
  0
POLYLINE
  5
88
  8
DECOUPE_INTERNE
 66
     1
 10
0.0
 20
0.0
 30
0.0
 70
     1
  0
VERTEX
  5
306
  8
DECOUPE_INTERNE
 10
2266.530413872588
 20
473.1046040194258
 30
0.0
 42
-0.7585563082500538
  0
VERTEX
  5
307
  8
DECOUPE_INTERNE
 10
2274.083816854401
 20
468.8546040194258
 30
0.0
 42
-0.7585563082500676
  0
VERTEX
  5
308
  8
DECOUPE_INTERNE
 10
2266.530413872588
 20
464.6046040194261
 30
0.0
  0
VERTEX
  5
309
  8
DECOUPE_INTERNE
 10
1839.258335933942
 20
464.6046040194261
 30
0.0
 42
-0.7585563082500801
  0
VERTEX
  5
30A
  8
DECOUPE_INTERNE
 10
1831.704932952129
 20
468.8546040194258
 30
0.0
 42
-0.758556308250094
  0
VERTEX
  5
30B
  8
DECOUPE_INTERNE
 10
1839.258335933942
 20
473.1046040194258
 30
0.0
  0
SEQEND
  5
4D5
  8
DECOUPE_INTERNE
  0
POLYLINE
  5
89
  8
DECOUPE_INTERNE
 66
     1
 10
0.0
 20
0.0
 30
0.0
 70
     1
  0
VERTEX
  5
30C
  8
DECOUPE_INTERNE
 10
2443.89437490327
 20
395.7185650501061
 30
0.0
 42
-0.9999999999999999
  0
VERTEX
  5
30D
  8
DECOUPE_INTERNE
 10
2437.530413872592
 20
389.3546040194269
 30
0.0
  0
VERTEX
  5
30E
  8
DECOUPE_INTERNE
 10
2425.258335933947
 20
389.3546040194269
 30
0.0
 42
-0.9999999999999999
  0
VERTEX
  5
30F
  8
DECOUPE_INTERNE
 10
2418.89437490327
 20
395.7185650501061
 30
0.0
  0
VERTEX
  5
310
  8
DECOUPE_INTERNE
 10
2418.89437490327
 20
401.9906429887482
 30
0.0
 42
-0.9999999999999999
  0
VERTEX
  5
311
  8
DECOUPE_INTERNE
 10
2425.258335933948
 20
408.3546040194266
 30
0.0
  0
VERTEX
  5
312
  8
DECOUPE_INTERNE
 10
2437.530413872591
 20
408.3546040194262
 30
0.0
 42
-0.9999999999999999
  0
VERTEX
  5
313
  8
DECOUPE_INTERNE
 10
2443.894374903271
 20
401.9906429887486
 30
0.0
  0
SEQEND
  5
4D6
  8
DECOUPE_INTERNE
  0
POLYLINE
  5
8A
  8
DECOUPE_INTERNE
 66
     1
 10
0.0
 20
0.0
 30
0.0
 70
     1
  0
VERTEX
  5
314
  8
DECOUPE_INTERNE
 10
2425.258335933948
 20
309.3546040194271
 30
0.0
  0
VERTEX
  5
315
  8
DECOUPE_INTERNE
 10
2437.530413872592
 20
309.3546040194271
 30
0.0
 42
0.9999999999999419
  0
VERTEX
  5
316
  8
DECOUPE_INTERNE
 10
2443.894374903271
 20
315.7185650501056
 30
0.0
  0
VERTEX
  5
317
  8
DECOUPE_INTERNE
 10
2443.894374903271
 20
321.9906429887487
 30
0.0
 42
0.9999999999999442
  0
VERTEX
  5
318
  8
DECOUPE_INTERNE
 10
2437.530413872592
 20
328.3546040194271
 30
0.0
  0
VERTEX
  5
319
  8
DECOUPE_INTERNE
 10
2425.258335933948
 20
328.3546040194271
 30
0.0
 42
0.4142135623730985
  0
VERTEX
  5
31A
  8
DECOUPE_INTERNE
 10
2418.89437490327
 20
328.3546040194273
 30
0.0
 42
0.4142135623730602
  0
VERTEX
  5
31B
  8
DECOUPE_INTERNE
 10
2418.89437490327
 20
321.9906429887482
 30
0.0
  0
VERTEX
  5
31C
  8
DECOUPE_INTERNE
 10
2418.89437490327
 20
315.7185650501062
 30
0.0
 42
0.4142135623731575
  0
VERTEX
  5
31D
  8
DECOUPE_INTERNE
 10
2418.89437490327
 20
309.3546040194274
 30
0.0
 42
0.4142135623731102
  0
SEQEND
  5
4D7
  8
DECOUPE_INTERNE
  0
POLYLINE
  5
8B
  8
DECOUPE_INTERNE
 66
     1
 10
0.0
 20
0.0
 30
0.0
 70
     1
  0
VERTEX
  5
31E
  8
DECOUPE_INTERNE
 10
1877.894374903263
 20
358.8546040194271
 30
0.0
 42
0.4142135623730951
  0
VERTEX
  5
31F
  8
DECOUPE_INTERNE
 10
1867.894374903263
 20
348.8546040194271
 30
0.0
 42
0.4142135623730951
  0
VERTEX
  5
320
  8
DECOUPE_INTERNE
 10
1877.894374903263
 20
338.8546040194271
 30
0.0
 42
0.4142135623730951
  0
VERTEX
  5
321
  8
DECOUPE_INTERNE
 10
1887.894374903263
 20
348.8546040194271
 30
0.0
 42
0.4142135623730951
  0
SEQEND
  5
4D8
  8
DECOUPE_INTERNE
  0
POLYLINE
  5
8C
  8
DECOUPE_INTERNE
 66
     1
 10
0.0
 20
0.0
 30
0.0
 70
     1
  0
VERTEX
  5
322
  8
DECOUPE_INTERNE
 10
2027.894374903265
 20
358.8546040194271
 30
0.0
 42
0.4142135623730951
  0
VERTEX
  5
323
  8
DECOUPE_INTERNE
 10
2017.894374903265
 20
348.8546040194271
 30
0.0
 42
0.4142135623730951
  0
VERTEX
  5
324
  8
DECOUPE_INTERNE
 10
2027.894374903265
 20
338.8546040194271
 30
0.0
 42
0.4142135623730951
  0
VERTEX
  5
325
  8
DECOUPE_INTERNE
 10
2037.894374903265
 20
348.8546040194271
 30
0.0
 42
0.4142135623730951
  0
SEQEND
  5
4D9
  8
DECOUPE_INTERNE
  0
POLYLINE
  5
8D
  8
DECOUPE_INTERNE
 66
     1
 10
0.0
 20
0.0
 30
0.0
 70
     1
  0
VERTEX
  5
326
  8
DECOUPE_INTERNE
 10
2327.894374903268
 20
358.8546040194271
 30
0.0
 42
0.4142135623730951
  0
VERTEX
  5
327
  8
DECOUPE_INTERNE
 10
2317.894374903268
 20
348.8546040194271
 30
0.0
 42
0.4142135623730951
  0
VERTEX
  5
328
  8
DECOUPE_INTERNE
 10
2327.894374903268
 20
338.8546040194271
 30
0.0
 42
0.4142135623730951
  0
VERTEX
  5
329
  8
DECOUPE_INTERNE
 10
2337.894374903268
 20
348.8546040194271
 30
0.0
 42
0.4142135623730951
  0
SEQEND
  5
4DA
  8
DECOUPE_INTERNE
  0
POLYLINE
  5
8E
  8
DECOUPE_INTERNE
 66
     1
 10
0.0
 20
0.0
 30
0.0
 70
     1
  0
VERTEX
  5
32A
  8
DECOUPE_INTERNE
 10
2177.894374903266
 20
358.8546040194271
 30
0.0
 42
0.4142135623730951
  0
VERTEX
  5
32B
  8
DECOUPE_INTERNE
 10
2167.894374903266
 20
348.8546040194271
 30
0.0
 42
0.4142135623730951
  0
VERTEX
  5
32C
  8
DECOUPE_INTERNE
 10
2177.894374903266
 20
338.8546040194271
 30
0.0
 42
0.4142135623730951
  0
VERTEX
  5
32D
  8
DECOUPE_INTERNE
 10
2187.894374903266
 20
348.8546040194271
 30
0.0
 42
0.4142135623730951
  0
SEQEND
  5
4DB
  8
DECOUPE_INTERNE
  0
POLYLINE
  5
8F
  8
DECOUPE_INTERNE
 66
     1
 10
0.0
 20
0.0
 30
0.0
 70
     1
  0
VERTEX
  5
32E
  8
DECOUPE_INTERNE
 10
142.105625096729
 20
510.2275364414818
 30
0.0
 42
0.4142135623731075
  0
VERTEX
  5
32F
  8
DECOUPE_INTERNE
 10
142.105625096729
 20
503.8635754108026
 30
0.0
 42
0.4142135623731279
  0
VERTEX
  5
330
  8
DECOUPE_INTERNE
 10
148.4695861274081
 20
503.8635754108031
 30
0.0
  0
VERTEX
  5
331
  8
DECOUPE_INTERNE
 10
185.7416640660498
 20
503.8635754108031
 30
0.0
 42
0.414213562373108
  0
VERTEX
  5
332
  8
DECOUPE_INTERNE
 10
192.1056250967287
 20
503.8635754108028
 30
0.0
 42
0.4142135623731067
  0
VERTEX
  5
333
  8
DECOUPE_INTERNE
 10
192.1056250967289
 20
510.2275364414818
 30
0.0
  0
VERTEX
  5
334
  8
DECOUPE_INTERNE
 10
192.1056250967289
 20
516.4996143801243
 30
0.0
 42
0.9999999999999936
  0
VERTEX
  5
335
  8
DECOUPE_INTERNE
 10
185.74166406605
 20
522.8635754108034
 30
0.0
  0
VERTEX
  5
336
  8
DECOUPE_INTERNE
 10
148.4695861274081
 20
522.8635754108032
 30
0.0
 42
0.4142135623730946
  0
VERTEX
  5
337
  8
DECOUPE_INTERNE
 10
142.1056250967291
 20
522.8635754108034
 30
0.0
 42
0.4142135623731
  0
VERTEX
  5
338
  8
DECOUPE_INTERNE
 10
142.105625096729
 20
516.4996143801243
 30
0.0
  0
SEQEND
  5
4DC
  8
DECOUPE_INTERNE
  0
POLYLINE
  5
90
  8
DECOUPE_INTERNE
 66
     1
 10
0.0
 20
0.0
 30
0.0
 70
     1
  0
VERTEX
  5
339
  8
DECOUPE_INTERNE
 10
62.10562509672904
 20
510.2275364414817
 30
0.0
 42
0.4142135623731075
  0
VERTEX
  5
33A
  8
DECOUPE_INTERNE
 10
62.10562509672904
 20
503.8635754108026
 30
0.0
 42
0.4142135623731279
  0
VERTEX
  5
33B
  8
DECOUPE_INTERNE
 10
68.46958612740822
 20
503.863575410803
 30
0.0
  0
VERTEX
  5
33C
  8
DECOUPE_INTERNE
 10
105.7416640660498
 20
503.863575410803
 30
0.0
 42
0.414213562373108
  0
VERTEX
  5
33D
  8
DECOUPE_INTERNE
 10
112.1056250967288
 20
503.8635754108027
 30
0.0
 42
0.4142135623731067
  0
VERTEX
  5
33E
  8
DECOUPE_INTERNE
 10
112.105625096729
 20
510.2275364414817
 30
0.0
  0
VERTEX
  5
33F
  8
DECOUPE_INTERNE
 10
112.105625096729
 20
516.4996143801243
 30
0.0
 42
0.9999999999999936
  0
VERTEX
  5
340
  8
DECOUPE_INTERNE
 10
105.74166406605
 20
522.8635754108034
 30
0.0
  0
VERTEX
  5
341
  8
DECOUPE_INTERNE
 10
68.46958612740822
 20
522.8635754108032
 30
0.0
 42
0.4142135623730946
  0
VERTEX
  5
342
  8
DECOUPE_INTERNE
 10
62.10562509672921
 20
522.8635754108032
 30
0.0
 42
0.4142135623731
  0
VERTEX
  5
343
  8
DECOUPE_INTERNE
 10
62.10562509672904
 20
516.4996143801243
 30
0.0
  0
SEQEND
  5
4DD
  8
DECOUPE_INTERNE
  0
POLYLINE
  5
91
  8
DECOUPE_INTERNE
 66
     1
 10
0.0
 20
0.0
 30
0.0
 70
     1
  0
VERTEX
  5
344
  8
DECOUPE_INTERNE
 10
62.10562509672899
 20
1229.227536441481
 30
0.0
 42
0.4142135623731075
  0
VERTEX
  5
345
  8
DECOUPE_INTERNE
 10
62.10562509672899
 20
1222.863575410801
 30
0.0
 42
0.4142135623731279
  0
VERTEX
  5
346
  8
DECOUPE_INTERNE
 10
68.46958612740815
 20
1222.863575410802
 30
0.0
  0
VERTEX
  5
347
  8
DECOUPE_INTERNE
 10
105.7416640660498
 20
1222.863575410802
 30
0.0
 42
0.414213562373108
  0
VERTEX
  5
348
  8
DECOUPE_INTERNE
 10
112.1056250967287
 20
1222.863575410802
 30
0.0
 42
0.4142135623731067
  0
VERTEX
  5
349
  8
DECOUPE_INTERNE
 10
112.1056250967289
 20
1229.227536441481
 30
0.0
  0
VERTEX
  5
34A
  8
DECOUPE_INTERNE
 10
112.1056250967289
 20
1235.499614380123
 30
0.0
 42
0.9999999999999936
  0
VERTEX
  5
34B
  8
DECOUPE_INTERNE
 10
105.74166406605
 20
1241.863575410802
 30
0.0
  0
VERTEX
  5
34C
  8
DECOUPE_INTERNE
 10
68.46958612740815
 20
1241.863575410802
 30
0.0
 42
0.4142135623730946
  0
VERTEX
  5
34D
  8
DECOUPE_INTERNE
 10
62.10562509672916
 20
1241.863575410802
 30
0.0
 42
0.4142135623731
  0
VERTEX
  5
34E
  8
DECOUPE_INTERNE
 10
62.10562509672899
 20
1235.499614380123
 30
0.0
  0
SEQEND
  5
4DE
  8
DECOUPE_INTERNE
  0
POLYLINE
  5
92
  8
DECOUPE_INTERNE
 66
     1
 10
0.0
 20
0.0
 30
0.0
 70
     1
  0
VERTEX
  5
34F
  8
DECOUPE_INTERNE
 10
142.1056250967289
 20
1229.227536441481
 30
0.0
 42
0.4142135623731075
  0
VERTEX
  5
350
  8
DECOUPE_INTERNE
 10
142.1056250967289
 20
1222.863575410801
 30
0.0
 42
0.4142135623731279
  0
VERTEX
  5
351
  8
DECOUPE_INTERNE
 10
148.4695861274081
 20
1222.863575410802
 30
0.0
  0
VERTEX
  5
352
  8
DECOUPE_INTERNE
 10
185.7416640660497
 20
1222.863575410802
 30
0.0
 42
0.414213562373108
  0
VERTEX
  5
353
  8
DECOUPE_INTERNE
 10
192.1056250967287
 20
1222.863575410802
 30
0.0
 42
0.4142135623731067
  0
VERTEX
  5
354
  8
DECOUPE_INTERNE
 10
192.1056250967288
 20
1229.227536441481
 30
0.0
  0
VERTEX
  5
355
  8
DECOUPE_INTERNE
 10
192.1056250967288
 20
1235.499614380123
 30
0.0
 42
0.9999999999999936
  0
VERTEX
  5
356
  8
DECOUPE_INTERNE
 10
185.74166406605
 20
1241.863575410802
 30
0.0
  0
VERTEX
  5
357
  8
DECOUPE_INTERNE
 10
148.4695861274081
 20
1241.863575410802
 30
0.0
 42
0.4142135623730946
  0
VERTEX
  5
358
  8
DECOUPE_INTERNE
 10
142.1056250967291
 20
1241.863575410802
 30
0.0
 42
0.4142135623731
  0
VERTEX
  5
359
  8
DECOUPE_INTERNE
 10
142.1056250967289
 20
1235.499614380123
 30
0.0
  0
SEQEND
  5
4DF
  8
DECOUPE_INTERNE
  0
POLYLINE
  5
93
  8
DECOUPE_INTERNE
 66
     1
 10
0.0
 20
0.0
 30
0.0
 70
     1
  0
VERTEX
  5
35A
  8
DECOUPE_INTERNE
 10
269.8550067949977
 20
1229.227536441481
 30
0.0
 42
0.4142135623731075
  0
VERTEX
  5
35B
  8
DECOUPE_INTERNE
 10
269.8550067949977
 20
1222.863575410801
 30
0.0
 42
0.4142135623731279
  0
VERTEX
  5
35C
  8
DECOUPE_INTERNE
 10
276.2189678256768
 20
1222.863575410802
 30
0.0
  0
VERTEX
  5
35D
  8
DECOUPE_INTERNE
 10
313.4910457643185
 20
1222.863575410802
 30
0.0
 42
0.414213562373108
  0
VERTEX
  5
35E
  8
DECOUPE_INTERNE
 10
319.8550067949975
 20
1222.863575410802
 30
0.0
 42
0.4142135623731067
  0
VERTEX
  5
35F
  8
DECOUPE_INTERNE
 10
319.8550067949976
 20
1229.227536441481
 30
0.0
  0
VERTEX
  5
360
  8
DECOUPE_INTERNE
 10
319.8550067949976
 20
1235.499614380123
 30
0.0
 42
0.9999999999999936
  0
VERTEX
  5
361
  8
DECOUPE_INTERNE
 10
313.4910457643188
 20
1241.863575410802
 30
0.0
  0
VERTEX
  5
362
  8
DECOUPE_INTERNE
 10
276.2189678256768
 20
1241.863575410802
 30
0.0
 42
0.4142135623730946
  0
VERTEX
  5
363
  8
DECOUPE_INTERNE
 10
269.8550067949978
 20
1241.863575410802
 30
0.0
 42
0.4142135623731
  0
VERTEX
  5
364
  8
DECOUPE_INTERNE
 10
269.8550067949977
 20
1235.499614380123
 30
0.0
  0
SEQEND
  5
4E0
  8
DECOUPE_INTERNE
  0
POLYLINE
  5
94
  8
DECOUPE_INTERNE
 66
     1
 10
0.0
 20
0.0
 30
0.0
 70
     1
  0
VERTEX
  5
365
  8
DECOUPE_INTERNE
 10
349.8550067949976
 20
1229.227536441481
 30
0.0
 42
0.4142135623731075
  0
VERTEX
  5
366
  8
DECOUPE_INTERNE
 10
349.8550067949976
 20
1222.863575410801
 30
0.0
 42
0.4142135623731279
  0
VERTEX
  5
367
  8
DECOUPE_INTERNE
 10
356.2189678256768
 20
1222.863575410802
 30
0.0
  0
VERTEX
  5
368
  8
DECOUPE_INTERNE
 10
393.4910457643185
 20
1222.863575410802
 30
0.0
 42
0.414213562373108
  0
VERTEX
  5
369
  8
DECOUPE_INTERNE
 10
399.8550067949974
 20
1222.863575410802
 30
0.0
 42
0.4142135623731067
  0
VERTEX
  5
36A
  8
DECOUPE_INTERNE
 10
399.8550067949976
 20
1229.227536441481
 30
0.0
  0
VERTEX
  5
36B
  8
DECOUPE_INTERNE
 10
399.8550067949976
 20
1235.499614380123
 30
0.0
 42
0.9999999999999936
  0
VERTEX
  5
36C
  8
DECOUPE_INTERNE
 10
393.4910457643187
 20
1241.863575410802
 30
0.0
  0
VERTEX
  5
36D
  8
DECOUPE_INTERNE
 10
356.2189678256768
 20
1241.863575410802
 30
0.0
 42
0.4142135623730946
  0
VERTEX
  5
36E
  8
DECOUPE_INTERNE
 10
349.8550067949978
 20
1241.863575410802
 30
0.0
 42
0.4142135623731
  0
VERTEX
  5
36F
  8
DECOUPE_INTERNE
 10
349.8550067949976
 20
1235.499614380123
 30
0.0
  0
SEQEND
  5
4E1
  8
DECOUPE_INTERNE
  0
POLYLINE
  5
95
  8
DECOUPE_INTERNE
 66
     1
 10
0.0
 20
0.0
 30
0.0
 70
     1
  0
VERTEX
  5
370
  8
DECOUPE_INTERNE
 10
269.8550067949977
 20
510.2275364414817
 30
0.0
 42
0.4142135623731075
  0
VERTEX
  5
371
  8
DECOUPE_INTERNE
 10
269.8550067949977
 20
503.8635754108026
 30
0.0
 42
0.4142135623731279
  0
VERTEX
  5
372
  8
DECOUPE_INTERNE
 10
276.2189678256769
 20
503.863575410803
 30
0.0
  0
VERTEX
  5
373
  8
DECOUPE_INTERNE
 10
313.4910457643185
 20
503.863575410803
 30
0.0
 42
0.414213562373108
  0
VERTEX
  5
374
  8
DECOUPE_INTERNE
 10
319.8550067949975
 20
503.8635754108027
 30
0.0
 42
0.4142135623731067
  0
VERTEX
  5
375
  8
DECOUPE_INTERNE
 10
319.8550067949977
 20
510.2275364414817
 30
0.0
  0
VERTEX
  5
376
  8
DECOUPE_INTERNE
 10
319.8550067949977
 20
516.4996143801243
 30
0.0
 42
0.9999999999999936
  0
VERTEX
  5
377
  8
DECOUPE_INTERNE
 10
313.4910457643188
 20
522.8635754108034
 30
0.0
  0
VERTEX
  5
378
  8
DECOUPE_INTERNE
 10
276.2189678256769
 20
522.8635754108032
 30
0.0
 42
0.4142135623730946
  0
VERTEX
  5
379
  8
DECOUPE_INTERNE
 10
269.8550067949979
 20
522.8635754108032
 30
0.0
 42
0.4142135623731
  0
VERTEX
  5
37A
  8
DECOUPE_INTERNE
 10
269.8550067949977
 20
516.4996143801243
 30
0.0
  0
SEQEND
  5
4E2
  8
DECOUPE_INTERNE
  0
POLYLINE
  5
96
  8
DECOUPE_INTERNE
 66
     1
 10
0.0
 20
0.0
 30
0.0
 70
     1
  0
VERTEX
  5
37B
  8
DECOUPE_INTERNE
 10
349.8550067949977
 20
510.2275364414818
 30
0.0
 42
0.4142135623731075
  0
VERTEX
  5
37C
  8
DECOUPE_INTERNE
 10
349.8550067949977
 20
503.8635754108026
 30
0.0
 42
0.4142135623731279
  0
VERTEX
  5
37D
  8
DECOUPE_INTERNE
 10
356.2189678256768
 20
503.8635754108031
 30
0.0
  0
VERTEX
  5
37E
  8
DECOUPE_INTERNE
 10
393.4910457643185
 20
503.8635754108031
 30
0.0
 42
0.414213562373108
  0
VERTEX
  5
37F
  8
DECOUPE_INTERNE
 10
399.8550067949974
 20
503.8635754108028
 30
0.0
 42
0.4142135623731067
  0
VERTEX
  5
380
  8
DECOUPE_INTERNE
 10
399.8550067949976
 20
510.2275364414818
 30
0.0
  0
VERTEX
  5
381
  8
DECOUPE_INTERNE
 10
399.8550067949976
 20
516.4996143801243
 30
0.0
 42
0.9999999999999936
  0
VERTEX
  5
382
  8
DECOUPE_INTERNE
 10
393.4910457643187
 20
522.8635754108034
 30
0.0
  0
VERTEX
  5
383
  8
DECOUPE_INTERNE
 10
356.2189678256768
 20
522.8635754108032
 30
0.0
 42
0.4142135623730946
  0
VERTEX
  5
384
  8
DECOUPE_INTERNE
 10
349.8550067949978
 20
522.8635754108034
 30
0.0
 42
0.4142135623731
  0
VERTEX
  5
385
  8
DECOUPE_INTERNE
 10
349.8550067949977
 20
516.4996143801243
 30
0.0
  0
SEQEND
  5
4E3
  8
DECOUPE_INTERNE
  0
POLYLINE
  5
97
  8
DECOUPE_INTERNE
 66
     1
 10
0.0
 20
0.0
 30
0.0
 70
     1
  0
VERTEX
  5
386
  8
DECOUPE_INTERNE
 10
2266.530413872588
 20
239.3865496088749
 30
0.0
 42
-0.7585563082500538
  0
VERTEX
  5
387
  8
DECOUPE_INTERNE
 10
2274.083816854401
 20
235.1365496088749
 30
0.0
 42
-0.7585563082500676
  0
VERTEX
  5
388
  8
DECOUPE_INTERNE
 10
2266.530413872588
 20
230.8865496088751
 30
0.0
  0
VERTEX
  5
389
  8
DECOUPE_INTERNE
 10
1839.258335933942
 20
230.8865496088751
 30
0.0
 42
-0.7585563082500801
  0
VERTEX
  5
38A
  8
DECOUPE_INTERNE
 10
1831.704932952129
 20
235.1365496088749
 30
0.0
 42
-0.758556308250094
  0
VERTEX
  5
38B
  8
DECOUPE_INTERNE
 10
1839.258335933942
 20
239.3865496088749
 30
0.0
  0
SEQEND
  5
4E4
  8
DECOUPE_INTERNE
  0
POLYLINE
  5
98
  8
DECOUPE_INTERNE
 66
     1
 10
0.0
 20
0.0
 30
0.0
 70
     1
  0
VERTEX
  5
38C
  8
DECOUPE_INTERNE
 10
731.7049329521233
 20
235.1365496088749
 30
0.0
 42
-0.7585563082501033
  0
VERTEX
  5
38D
  8
DECOUPE_INTERNE
 10
739.2583359339358
 20
239.3865496088749
 30
0.0
  0
VERTEX
  5
38E
  8
DECOUPE_INTERNE
 10
1166.53041387258
 20
239.3865496088749
 30
0.0
 42
-0.7585563082501046
  0
VERTEX
  5
38F
  8
DECOUPE_INTERNE
 10
1174.083816854392
 20
235.1365496088749
 30
0.0
 42
-0.7585563082501086
  0
VERTEX
  5
390
  8
DECOUPE_INTERNE
 10
1166.53041387258
 20
230.8865496088751
 30
0.0
  0
VERTEX
  5
391
  8
DECOUPE_INTERNE
 10
739.2583359339358
 20
230.8865496088751
 30
0.0
 42
-0.7585563082501053
  0
SEQEND
  5
4E5
  8
DECOUPE_INTERNE
  0
POLYLINE
  5
99
  8
DECOUPE_INTERNE
 66
     1
 10
0.0
 20
0.0
 30
0.0
 70
     1
  0
VERTEX
  5
392
  8
DECOUPE_INTERNE
 10
568.258335933935
 20
75.63654960887567
 30
0.0
  0
VERTEX
  5
393
  8
DECOUPE_INTERNE
 10
580.5304138725772
 20
75.63654960887567
 30
0.0
 42
0.414213562373093
  0
VERTEX
  5
394
  8
DECOUPE_INTERNE
 10
586.8943749032561
 20
75.63654960887567
 30
0.0
 42
0.4142135623730954
  0
VERTEX
  5
395
  8
DECOUPE_INTERNE
 10
586.894374903256
 20
82.00051063955459
 30
0.0
  0
VERTEX
  5
396
  8
DECOUPE_INTERNE
 10
586.894374903256
 20
88.27258857819672
 30
0.0
 42
0.4142135623730957
  0
VERTEX
  5
397
  8
DECOUPE_INTERNE
 10
586.8943749032561
 20
94.63654960887573
 30
0.0
 42
0.4142135623730983
  0
VERTEX
  5
398
  8
DECOUPE_INTERNE
 10
580.5304138725772
 20
94.63654960887573
 30
0.0
  0
VERTEX
  5
399
  8
DECOUPE_INTERNE
 10
568.258335933935
 20
94.63654960887573
 30
0.0
 42
0.4142135623730963
  0
VERTEX
  5
39A
  8
DECOUPE_INTERNE
 10
561.894374903256
 20
94.63654960887573
 30
0.0
 42
0.4142135623730975
  0
VERTEX
  5
39B
  8
DECOUPE_INTERNE
 10
561.894374903256
 20
88.27258857819683
 30
0.0
  0
VERTEX
  5
39C
  8
DECOUPE_INTERNE
 10
561.8943749032561
 20
82.00051063955459
 30
0.0
 42
0.4142135623730945
  0
VERTEX
  5
39D
  8
DECOUPE_INTERNE
 10
561.894374903256
 20
75.63654960887567
 30
0.0
 42
0.4142135623730864
  0
SEQEND
  5
4E6
  8
DECOUPE_INTERNE
  0
POLYLINE
  5
9A
  8
DECOUPE_INTERNE
 66
     1
 10
0.0
 20
0.0
 30
0.0
 70
     1
  0
VERTEX
  5
39E
  8
DECOUPE_INTERNE
 10
568.258335933935
 20
155.6365496088756
 30
0.0
 42
-0.9999999999999998
  0
VERTEX
  5
39F
  8
DECOUPE_INTERNE
 10
561.8943749032561
 20
162.0005106395549
 30
0.0
  0
VERTEX
  5
3A0
  8
DECOUPE_INTERNE
 10
561.894374903256
 20
168.272588578197
 30
0.0
 42
-0.9999999999999998
  0
VERTEX
  5
3A1
  8
DECOUPE_INTERNE
 10
568.258335933935
 20
174.6365496088755
 30
0.0
  0
VERTEX
  5
3A2
  8
DECOUPE_INTERNE
 10
580.5304139061049
 20
174.6365496424031
 30
0.0
 42
-0.9999999894632876
  0
VERTEX
  5
3A3
  8
DECOUPE_INTERNE
 10
586.894374903256
 20
168.272588578197
 30
0.0
  0
VERTEX
  5
3A4
  8
DECOUPE_INTERNE
 10
586.8943749032561
 20
162.0005106395549
 30
0.0
 42
-0.9999999999999982
  0
VERTEX
  5
3A5
  8
DECOUPE_INTERNE
 10
580.5304138725772
 20
155.6365496088756
 30
0.0
  0
SEQEND
  5
4E7
  8
DECOUPE_INTERNE
  0
POLYLINE
  5
9B
  8
DECOUPE_INTERNE
 66
     1
 10
0.0
 20
0.0
 30
0.0
 70
     1
  0
VERTEX
  5
3A6
  8
DECOUPE_INTERNE
 10
2443.89437490327
 20
162.0005106395549
 30
0.0
 42
-0.9999999999999999
  0
VERTEX
  5
3A7
  8
DECOUPE_INTERNE
 10
2437.530413872592
 20
155.6365496088756
 30
0.0
  0
VERTEX
  5
3A8
  8
DECOUPE_INTERNE
 10
2425.258335933947
 20
155.6365496088756
 30
0.0
 42
-0.9999999999999999
  0
VERTEX
  5
3A9
  8
DECOUPE_INTERNE
 10
2418.89437490327
 20
162.0005106395549
 30
0.0
  0
VERTEX
  5
3AA
  8
DECOUPE_INTERNE
 10
2418.89437490327
 20
168.272588578197
 30
0.0
 42
-0.9999999999999999
  0
VERTEX
  5
3AB
  8
DECOUPE_INTERNE
 10
2425.258335933948
 20
174.6365496088755
 30
0.0
  0
VERTEX
  5
3AC
  8
DECOUPE_INTERNE
 10
2437.530413872591
 20
174.6365496088751
 30
0.0
 42
-0.9999999999999999
  0
VERTEX
  5
3AD
  8
DECOUPE_INTERNE
 10
2443.894374903271
 20
168.2725885781974
 30
0.0
  0
SEQEND
  5
4E8
  8
DECOUPE_INTERNE
  0
POLYLINE
  5
9C
  8
DECOUPE_INTERNE
 66
     1
 10
0.0
 20
0.0
 30
0.0
 70
     1
  0
VERTEX
  5
3AE
  8
DECOUPE_INTERNE
 10
2425.258335933948
 20
75.63654960887567
 30
0.0
  0
VERTEX
  5
3AF
  8
DECOUPE_INTERNE
 10
2437.530413872592
 20
75.63654960887567
 30
0.0
 42
0.9999999999999419
  0
VERTEX
  5
3B0
  8
DECOUPE_INTERNE
 10
2443.894374903271
 20
82.00051063955408
 30
0.0
  0
VERTEX
  5
3B1
  8
DECOUPE_INTERNE
 10
2443.894374903271
 20
88.27258857819729
 30
0.0
 42
0.9999999999999442
  0
VERTEX
  5
3B2
  8
DECOUPE_INTERNE
 10
2437.530413872592
 20
94.63654960887573
 30
0.0
  0
VERTEX
  5
3B3
  8
DECOUPE_INTERNE
 10
2425.258335933948
 20
94.63654960887573
 30
0.0
 42
0.4142135623730985
  0
VERTEX
  5
3B4
  8
DECOUPE_INTERNE
 10
2418.89437490327
 20
94.63654960887584
 30
0.0
 42
0.4142135623730602
  0
VERTEX
  5
3B5
  8
DECOUPE_INTERNE
 10
2418.89437490327
 20
88.27258857819672
 30
0.0
  0
VERTEX
  5
3B6
  8
DECOUPE_INTERNE
 10
2418.89437490327
 20
82.0005106395547
 30
0.0
 42
0.4142135623731575
  0
VERTEX
  5
3B7
  8
DECOUPE_INTERNE
 10
2418.89437490327
 20
75.63654960887595
 30
0.0
 42
0.4142135623731102
  0
SEQEND
  5
4E9
  8
DECOUPE_INTERNE
  0
POLYLINE
  5
9D
  8
DECOUPE_INTERNE
 66
     1
 10
0.0
 20
0.0
 30
0.0
 70
     1
  0
VERTEX
  5
3B8
  8
DECOUPE_INTERNE
 10
677.8943749032564
 20
125.1365496088758
 30
0.0
 42
0.4142135623730951
  0
VERTEX
  5
3B9
  8
DECOUPE_INTERNE
 10
667.8943749032564
 20
115.1365496088758
 30
0.0
 42
0.4142135623730951
  0
VERTEX
  5
3BA
  8
DECOUPE_INTERNE
 10
677.8943749032564
 20
105.1365496088758
 30
0.0
 42
0.4142135623730951
  0
VERTEX
  5
3BB
  8
DECOUPE_INTERNE
 10
687.8943749032566
 20
115.1365496088758
 30
0.0
 42
0.4142135623730951
  0
SEQEND
  5
4EA
  8
DECOUPE_INTERNE
  0
POLYLINE
  5
9E
  8
DECOUPE_INTERNE
 66
     1
 10
0.0
 20
0.0
 30
0.0
 70
     1
  0
VERTEX
  5
3BC
  8
DECOUPE_INTERNE
 10
827.8943749032572
 20
125.1365496088758
 30
0.0
 42
0.4142135623730951
  0
VERTEX
  5
3BD
  8
DECOUPE_INTERNE
 10
817.8943749032572
 20
115.1365496088758
 30
0.0
 42
0.4142135623730951
  0
VERTEX
  5
3BE
  8
DECOUPE_INTERNE
 10
827.8943749032572
 20
105.1365496088758
 30
0.0
 42
0.4142135623730951
  0
VERTEX
  5
3BF
  8
DECOUPE_INTERNE
 10
837.8943749032574
 20
115.1365496088758
 30
0.0
 42
0.4142135623730951
  0
SEQEND
  5
4EB
  8
DECOUPE_INTERNE
  0
POLYLINE
  5
9F
  8
DECOUPE_INTERNE
 66
     1
 10
0.0
 20
0.0
 30
0.0
 70
     1
  0
VERTEX
  5
3C0
  8
DECOUPE_INTERNE
 10
1277.894374903259
 20
125.1365496088758
 30
0.0
 42
0.4142135623730951
  0
VERTEX
  5
3C1
  8
DECOUPE_INTERNE
 10
1267.894374903259
 20
115.1365496088758
 30
0.0
 42
0.4142135623730951
  0
VERTEX
  5
3C2
  8
DECOUPE_INTERNE
 10
1277.894374903259
 20
105.1365496088758
 30
0.0
 42
0.4142135623730951
  0
VERTEX
  5
3C3
  8
DECOUPE_INTERNE
 10
1287.894374903259
 20
115.1365496088758
 30
0.0
 42
0.4142135623730951
  0
SEQEND
  5
4EC
  8
DECOUPE_INTERNE
  0
POLYLINE
  5
A0
  8
DECOUPE_INTERNE
 66
     1
 10
0.0
 20
0.0
 30
0.0
 70
     1
  0
VERTEX
  5
3C4
  8
DECOUPE_INTERNE
 10
1727.894374903261
 20
125.1365496088758
 30
0.0
 42
0.4142135623730951
  0
VERTEX
  5
3C5
  8
DECOUPE_INTERNE
 10
1717.894374903261
 20
115.1365496088758
 30
0.0
 42
0.4142135623730951
  0
VERTEX
  5
3C6
  8
DECOUPE_INTERNE
 10
1727.894374903261
 20
105.1365496088758
 30
0.0
 42
0.4142135623730951
  0
VERTEX
  5
3C7
  8
DECOUPE_INTERNE
 10
1737.894374903261
 20
115.1365496088758
 30
0.0
 42
0.4142135623730951
  0
SEQEND
  5
4ED
  8
DECOUPE_INTERNE
  0
POLYLINE
  5
A1
  8
DECOUPE_INTERNE
 66
     1
 10
0.0
 20
0.0
 30
0.0
 70
     1
  0
VERTEX
  5
3C8
  8
DECOUPE_INTERNE
 10
1427.894374903259
 20
125.1365496088758
 30
0.0
 42
0.4142135623730951
  0
VERTEX
  5
3C9
  8
DECOUPE_INTERNE
 10
1417.894374903259
 20
115.1365496088758
 30
0.0
 42
0.4142135623730951
  0
VERTEX
  5
3CA
  8
DECOUPE_INTERNE
 10
1427.894374903259
 20
105.1365496088758
 30
0.0
 42
0.4142135623730951
  0
VERTEX
  5
3CB
  8
DECOUPE_INTERNE
 10
1437.894374903259
 20
115.1365496088758
 30
0.0
 42
0.4142135623730951
  0
SEQEND
  5
4EE
  8
DECOUPE_INTERNE
  0
POLYLINE
  5
A2
  8
DECOUPE_INTERNE
 66
     1
 10
0.0
 20
0.0
 30
0.0
 70
     1
  0
VERTEX
  5
3CC
  8
DECOUPE_INTERNE
 10
1502.894374903259
 20
110.1365496088758
 30
0.0
 42
0.4142135623730951
  0
VERTEX
  5
3CD
  8
DECOUPE_INTERNE
 10
1477.894374903259
 20
85.1365496088757
 30
0.0
 42
0.4142135623730951
  0
VERTEX
  5
3CE
  8
DECOUPE_INTERNE
 10
1502.894374903259
 20
60.13654960887561
 30
0.0
 42
0.4142135623730951
  0
VERTEX
  5
3CF
  8
DECOUPE_INTERNE
 10
1527.894374903259
 20
85.1365496088757
 30
0.0
 42
0.4142135623730951
  0
SEQEND
  5
4EF
  8
DECOUPE_INTERNE
  0
POLYLINE
  5
A3
  8
DECOUPE_INTERNE
 66
     1
 10
0.0
 20
0.0
 30
0.0
 70
     1
  0
VERTEX
  5
3D0
  8
DECOUPE_INTERNE
 10
977.894374903258
 20
125.1365496088758
 30
0.0
 42
0.4142135623730951
  0
VERTEX
  5
3D1
  8
DECOUPE_INTERNE
 10
967.894374903258
 20
115.1365496088758
 30
0.0
 42
0.4142135623730951
  0
VERTEX
  5
3D2
  8
DECOUPE_INTERNE
 10
977.894374903258
 20
105.1365496088758
 30
0.0
 42
0.4142135623730951
  0
VERTEX
  5
3D3
  8
DECOUPE_INTERNE
 10
987.894374903258
 20
115.1365496088758
 30
0.0
 42
0.4142135623730951
  0
SEQEND
  5
4F0
  8
DECOUPE_INTERNE
  0
POLYLINE
  5
A4
  8
DECOUPE_INTERNE
 66
     1
 10
0.0
 20
0.0
 30
0.0
 70
     1
  0
VERTEX
  5
3D4
  8
DECOUPE_INTERNE
 10
1127.894374903259
 20
125.1365496088758
 30
0.0
 42
0.4142135623730951
  0
VERTEX
  5
3D5
  8
DECOUPE_INTERNE
 10
1117.894374903259
 20
115.1365496088758
 30
0.0
 42
0.4142135623730951
  0
VERTEX
  5
3D6
  8
DECOUPE_INTERNE
 10
1127.894374903259
 20
105.1365496088758
 30
0.0
 42
0.4142135623730951
  0
VERTEX
  5
3D7
  8
DECOUPE_INTERNE
 10
1137.894374903259
 20
115.1365496088758
 30
0.0
 42
0.4142135623730951
  0
SEQEND
  5
4F1
  8
DECOUPE_INTERNE
  0
POLYLINE
  5
A5
  8
DECOUPE_INTERNE
 66
     1
 10
0.0
 20
0.0
 30
0.0
 70
     1
  0
VERTEX
  5
3D8
  8
DECOUPE_INTERNE
 10
1577.894374903259
 20
125.1365496088758
 30
0.0
 42
0.4142135623730951
  0
VERTEX
  5
3D9
  8
DECOUPE_INTERNE
 10
1567.894374903259
 20
115.1365496088758
 30
0.0
 42
0.4142135623730951
  0
VERTEX
  5
3DA
  8
DECOUPE_INTERNE
 10
1577.894374903259
 20
105.1365496088758
 30
0.0
 42
0.4142135623730951
  0
VERTEX
  5
3DB
  8
DECOUPE_INTERNE
 10
1587.894374903259
 20
115.1365496088758
 30
0.0
 42
0.4142135623730951
  0
SEQEND
  5
4F2
  8
DECOUPE_INTERNE
  0
POLYLINE
  5
A6
  8
DECOUPE_INTERNE
 66
     1
 10
0.0
 20
0.0
 30
0.0
 70
     1
  0
VERTEX
  5
3DC
  8
DECOUPE_INTERNE
 10
1877.894374903263
 20
125.1365496088758
 30
0.0
 42
0.4142135623730951
  0
VERTEX
  5
3DD
  8
DECOUPE_INTERNE
 10
1867.894374903263
 20
115.1365496088758
 30
0.0
 42
0.4142135623730951
  0
VERTEX
  5
3DE
  8
DECOUPE_INTERNE
 10
1877.894374903263
 20
105.1365496088758
 30
0.0
 42
0.4142135623730951
  0
VERTEX
  5
3DF
  8
DECOUPE_INTERNE
 10
1887.894374903263
 20
115.1365496088758
 30
0.0
 42
0.4142135623730951
  0
SEQEND
  5
4F3
  8
DECOUPE_INTERNE
  0
POLYLINE
  5
A7
  8
DECOUPE_INTERNE
 66
     1
 10
0.0
 20
0.0
 30
0.0
 70
     1
  0
VERTEX
  5
3E0
  8
DECOUPE_INTERNE
 10
2027.894374903265
 20
125.1365496088758
 30
0.0
 42
0.4142135623730951
  0
VERTEX
  5
3E1
  8
DECOUPE_INTERNE
 10
2017.894374903265
 20
115.1365496088758
 30
0.0
 42
0.4142135623730951
  0
VERTEX
  5
3E2
  8
DECOUPE_INTERNE
 10
2027.894374903265
 20
105.1365496088758
 30
0.0
 42
0.4142135623730951
  0
VERTEX
  5
3E3
  8
DECOUPE_INTERNE
 10
2037.894374903265
 20
115.1365496088758
 30
0.0
 42
0.4142135623730951
  0
SEQEND
  5
4F4
  8
DECOUPE_INTERNE
  0
POLYLINE
  5
A8
  8
DECOUPE_INTERNE
 66
     1
 10
0.0
 20
0.0
 30
0.0
 70
     1
  0
VERTEX
  5
3E4
  8
DECOUPE_INTERNE
 10
2327.894374903268
 20
125.1365496088758
 30
0.0
 42
0.4142135623730951
  0
VERTEX
  5
3E5
  8
DECOUPE_INTERNE
 10
2317.894374903268
 20
115.1365496088758
 30
0.0
 42
0.4142135623730951
  0
VERTEX
  5
3E6
  8
DECOUPE_INTERNE
 10
2327.894374903268
 20
105.1365496088758
 30
0.0
 42
0.4142135623730951
  0
VERTEX
  5
3E7
  8
DECOUPE_INTERNE
 10
2337.894374903268
 20
115.1365496088758
 30
0.0
 42
0.4142135623730951
  0
SEQEND
  5
4F5
  8
DECOUPE_INTERNE
  0
POLYLINE
  5
A9
  8
DECOUPE_INTERNE
 66
     1
 10
0.0
 20
0.0
 30
0.0
 70
     1
  0
VERTEX
  5
3E8
  8
DECOUPE_INTERNE
 10
2177.894374903266
 20
125.1365496088758
 30
0.0
 42
0.4142135623730951
  0
VERTEX
  5
3E9
  8
DECOUPE_INTERNE
 10
2167.894374903266
 20
115.1365496088758
 30
0.0
 42
0.4142135623730951
  0
VERTEX
  5
3EA
  8
DECOUPE_INTERNE
 10
2177.894374903266
 20
105.1365496088758
 30
0.0
 42
0.4142135623730951
  0
VERTEX
  5
3EB
  8
DECOUPE_INTERNE
 10
2187.894374903266
 20
115.1365496088758
 30
0.0
 42
0.4142135623730951
  0
SEQEND
  5
4F6
  8
DECOUPE_INTERNE
  0
POLYLINE
  5
AB
  8
DECOUPE_EXTERNE
 66
     1
 10
0.0
 20
0.0
 30
0.0
 70
     1
  0
VERTEX
  5
3EC
  8
DECOUPE_EXTERNE
 10
395.8550067949978
 20
1261.863575410802
 30
0.0
  0
VERTEX
  5
3ED
  8
DECOUPE_EXTERNE
 10
418.4591729256252
 20
1261.863575410802
 30
0.0
  0
VERTEX
  5
3EE
  8
DECOUPE_EXTERNE
 10
424.8550067949977
 20
1261.863575410802
 30
0.0
  0
VERTEX
  5
3EF
  8
DECOUPE_EXTERNE
 10
424.8550067949977
 20
963.8635754108038
 30
0.0
  0
VERTEX
  5
3F0
  8
DECOUPE_EXTERNE
 10
414.8550067949977
 20
963.8635754108038
 30
0.0
  0
VERTEX
  5
3F1
  8
DECOUPE_EXTERNE
 10
395.8550067949977
 20
963.8635754108038
 30
0.0
  0
VERTEX
  5
3F2
  8
DECOUPE_EXTERNE
 10
331.2189678256766
 20
963.8635754108038
 30
0.0
 42
0.999999999999991
  0
VERTEX
  5
3F3
  8
DECOUPE_EXTERNE
 10
324.8550067949976
 20
957.4996143801247
 30
0.0
  0
VERTEX
  5
3F4
  8
DECOUPE_EXTERNE
 10
324.8550067949976
 20
788.2275364414827
 30
0.0
 42
1.0
  0
VERTEX
  5
3F5
  8
DECOUPE_EXTERNE
 10
331.2189678256765
 20
781.8635754108037
 30
0.0
  0
VERTEX
  5
3F6
  8
DECOUPE_EXTERNE
 10
395.8550067949977
 20
781.8635754108036
 30
0.0
  0
VERTEX
  5
3F7
  8
DECOUPE_EXTERNE
 10
414.8550067949977
 20
781.8635754108034
 30
0.0
  0
VERTEX
  5
3F8
  8
DECOUPE_EXTERNE
 10
424.8550067949977
 20
781.8635754108037
 30
0.0
  0
VERTEX
  5
3F9
  8
DECOUPE_EXTERNE
 10
424.8550067949977
 20
483.8635754108029
 30
0.0
  0
VERTEX
  5
3FA
  8
DECOUPE_EXTERNE
 10
418.4591729256253
 20
483.8635754108029
 30
0.0
  0
VERTEX
  5
3FB
  8
DECOUPE_EXTERNE
 10
395.8550067949977
 20
483.8635754108029
 30
0.0
  0
VERTEX
  5
3FC
  8
DECOUPE_EXTERNE
 10
244.8550067949976
 20
483.8635754108029
 30
0.0
  0
VERTEX
  5
3FD
  8
DECOUPE_EXTERNE
 10
244.8550067949976
 20
1261.863575410802
 30
0.0
  0
SEQEND
  5
4F7
  8
DECOUPE_EXTERNE
  0
POLYLINE
  5
AC
  8
DECOUPE_EXTERNE
 66
     1
 10
0.0
 20
0.0
 30
0.0
 70
     1
  0
VERTEX
  5
3FE
  8
DECOUPE_EXTERNE
 10
188.1056250967291
 20
1261.863575410802
 30
0.0
  0
VERTEX
  5
3FF
  8
DECOUPE_EXTERNE
 10
210.7097912273565
 20
1261.863575410802
 30
0.0
  0
VERTEX
  5
400
  8
DECOUPE_EXTERNE
 10
217.105625096729
 20
1261.863575410802
 30
0.0
  0
VERTEX
  5
401
  8
DECOUPE_EXTERNE
 10
217.105625096729
 20
963.8635754108038
 30
0.0
  0
VERTEX
  5
402
  8
DECOUPE_EXTERNE
 10
207.105625096729
 20
963.8635754108038
 30
0.0
  0
VERTEX
  5
403
  8
DECOUPE_EXTERNE
 10
188.105625096729
 20
963.8635754108038
 30
0.0
  0
VERTEX
  5
404
  8
DECOUPE_EXTERNE
 10
123.4695861274079
 20
963.8635754108038
 30
0.0
 42
0.999999999999991
  0
VERTEX
  5
405
  8
DECOUPE_EXTERNE
 10
117.1056250967289
 20
957.4996143801247
 30
0.0
  0
VERTEX
  5
406
  8
DECOUPE_EXTERNE
 10
117.1056250967289
 20
788.2275364414827
 30
0.0
 42
1.0
  0
VERTEX
  5
407
  8
DECOUPE_EXTERNE
 10
123.4695861274078
 20
781.8635754108037
 30
0.0
  0
VERTEX
  5
408
  8
DECOUPE_EXTERNE
 10
188.105625096729
 20
781.8635754108036
 30
0.0
  0
VERTEX
  5
409
  8
DECOUPE_EXTERNE
 10
207.105625096729
 20
781.8635754108034
 30
0.0
  0
VERTEX
  5
40A
  8
DECOUPE_EXTERNE
 10
217.105625096729
 20
781.8635754108037
 30
0.0
  0
VERTEX
  5
40B
  8
DECOUPE_EXTERNE
 10
217.105625096729
 20
483.8635754108029
 30
0.0
  0
VERTEX
  5
40C
  8
DECOUPE_EXTERNE
 10
210.7097912273566
 20
483.8635754108029
 30
0.0
  0
VERTEX
  5
40D
  8
DECOUPE_EXTERNE
 10
188.105625096729
 20
483.8635754108029
 30
0.0
  0
VERTEX
  5
40E
  8
DECOUPE_EXTERNE
 10
37.10562509672899
 20
483.8635754108029
 30
0.0
  0
VERTEX
  5
40F
  8
DECOUPE_EXTERNE
 10
37.10562509672899
 20
1261.863575410802
 30
0.0
  0
SEQEND
  5
4F8
  8
DECOUPE_EXTERNE
  0
POLYLINE
  5
AD
  8
DECOUPE_EXTERNE
 66
     1
 10
0.0
 20
0.0
 30
0.0
 70
     1
  0
VERTEX
  5
410
  8
DECOUPE_EXTERNE
 10
524.5997772047199
 20
959.5759535359127
 30
0.0
 42
-0.4142135623730984
  0
VERTEX
  5
411
  8
DECOUPE_EXTERNE
 10
529.5997772047203
 20
954.5759535359128
 30
0.0
  0
VERTEX
  5
412
  8
DECOUPE_EXTERNE
 10
529.5997772047203
 20
915.5759535359125
 30
0.0
 42
-0.4142135623731022
  0
VERTEX
  5
413
  8
DECOUPE_EXTERNE
 10
524.5997772047199
 20
910.5759535359125
 30
0.0
  0
VERTEX
  5
414
  8
DECOUPE_EXTERNE
 10
514.1155365337095
 20
910.5759535359125
 30
0.0
 42
-0.3847336660978927
  0
VERTEX
  5
415
  8
DECOUPE_EXTERNE
 10
509.1413658210531
 20
915.0683850958455
 30
0.0
  0
VERTEX
  5
416
  8
DECOUPE_EXTERNE
 10
505.1617739843185
 20
954.0683850958457
 30
0.0
 42
-0.4443210625736526
  0
VERTEX
  5
417
  8
DECOUPE_EXTERNE
 10
510.135944696975
 20
959.5759535359127
 30
0.0
  0
SEQEND
  5
4F9
  8
DECOUPE_EXTERNE
  0
POLYLINE
  5
AE
  8
DECOUPE_EXTERNE
 66
     1
 10
0.0
 20
0.0
 30
0.0
 70
     1
  0
VERTEX
  5
418
  8
DECOUPE_EXTERNE
 10
559.0634947736901
 20
959.5759535359127
 30
0.0
 42
-0.4142135623730984
  0
VERTEX
  5
419
  8
DECOUPE_EXTERNE
 10
564.0634947736902
 20
954.5759535359128
 30
0.0
  0
VERTEX
  5
41A
  8
DECOUPE_EXTERNE
 10
564.0634947736902
 20
915.5759535359125
 30
0.0
 42
-0.4142135623731022
  0
VERTEX
  5
41B
  8
DECOUPE_EXTERNE
 10
559.0634947736901
 20
910.5759535359125
 30
0.0
  0
VERTEX
  5
41C
  8
DECOUPE_EXTERNE
 10
548.5792541026797
 20
910.5759535359125
 30
0.0
 42
-0.3847336660978927
  0
VERTEX
  5
41D
  8
DECOUPE_EXTERNE
 10
543.6050833900233
 20
915.0683850958455
 30
0.0
  0
VERTEX
  5
41E
  8
DECOUPE_EXTERNE
 10
539.6254915532884
 20
954.0683850958457
 30
0.0
 42
-0.4443210625736526
  0
VERTEX
  5
41F
  8
DECOUPE_EXTERNE
 10
544.5996622659447
 20
959.5759535359127
 30
0.0
  0
SEQEND
  5
4FA
  8
DECOUPE_EXTERNE
  0
POLYLINE
  5
AF
  8
DECOUPE_EXTERNE
 66
     1
 10
0.0
 20
0.0
 30
0.0
 70
     1
  0
VERTEX
  5
420
  8
DECOUPE_EXTERNE
 10
559.0634947736901
 20
1059.693018663695
 30
0.0
 42
-0.4142135623730984
  0
VERTEX
  5
421
  8
DECOUPE_EXTERNE
 10
564.0634947736902
 20
1054.693018663695
 30
0.0
  0
VERTEX
  5
422
  8
DECOUPE_EXTERNE
 10
564.0634947736902
 20
1015.693018663695
 30
0.0
 42
-0.4142135623731022
  0
VERTEX
  5
423
  8
DECOUPE_EXTERNE
 10
559.0634947736901
 20
1010.693018663695
 30
0.0
  0
VERTEX
  5
424
  8
DECOUPE_EXTERNE
 10
548.5792541026797
 20
1010.693018663695
 30
0.0
 42
-0.3847336660978927
  0
VERTEX
  5
425
  8
DECOUPE_EXTERNE
 10
543.6050833900233
 20
1015.185450223628
 30
0.0
  0
VERTEX
  5
426
  8
DECOUPE_EXTERNE
 10
539.6254915532884
 20
1054.185450223628
 30
0.0
 42
-0.4443210625736526
  0
VERTEX
  5
427
  8
DECOUPE_EXTERNE
 10
544.5996622659447
 20
1059.693018663695
 30
0.0
  0
SEQEND
  5
4FB
  8
DECOUPE_EXTERNE
  0
POLYLINE
  5
B0
  8
DECOUPE_EXTERNE
 66
     1
 10
0.0
 20
0.0
 30
0.0
 70
     1
  0
VERTEX
  5
428
  8
DECOUPE_EXTERNE
 10
524.5997772047199
 20
1059.693018663695
 30
0.0
 42
-0.4142135623730984
  0
VERTEX
  5
429
  8
DECOUPE_EXTERNE
 10
529.5997772047203
 20
1054.693018663695
 30
0.0
  0
VERTEX
  5
42A
  8
DECOUPE_EXTERNE
 10
529.5997772047203
 20
1015.693018663695
 30
0.0
 42
-0.4142135623731022
  0
VERTEX
  5
42B
  8
DECOUPE_EXTERNE
 10
524.5997772047199
 20
1010.693018663695
 30
0.0
  0
VERTEX
  5
42C
  8
DECOUPE_EXTERNE
 10
514.1155365337095
 20
1010.693018663695
 30
0.0
 42
-0.3847336660978927
  0
VERTEX
  5
42D
  8
DECOUPE_EXTERNE
 10
509.1413658210531
 20
1015.185450223628
 30
0.0
  0
VERTEX
  5
42E
  8
DECOUPE_EXTERNE
 10
505.1617739843185
 20
1054.185450223628
 30
0.0
 42
-0.4443210625736526
  0
VERTEX
  5
42F
  8
DECOUPE_EXTERNE
 10
510.135944696975
 20
1059.693018663695
 30
0.0
  0
SEQEND
  5
4FC
  8
DECOUPE_EXTERNE
  0
POLYLINE
  5
B1
  8
DECOUPE_EXTERNE
 66
     1
 10
0.0
 20
0.0
 30
0.0
 70
     1
  0
VERTEX
  5
430
  8
DECOUPE_EXTERNE
 10
524.5997772047199
 20
1159.810083791478
 30
0.0
 42
-0.4142135623730984
  0
VERTEX
  5
431
  8
DECOUPE_EXTERNE
 10
529.5997772047203
 20
1154.810083791478
 30
0.0
  0
VERTEX
  5
432
  8
DECOUPE_EXTERNE
 10
529.5997772047203
 20
1115.810083791478
 30
0.0
 42
-0.4142135623731022
  0
VERTEX
  5
433
  8
DECOUPE_EXTERNE
 10
524.5997772047199
 20
1110.810083791478
 30
0.0
  0
VERTEX
  5
434
  8
DECOUPE_EXTERNE
 10
514.1155365337095
 20
1110.810083791478
 30
0.0
 42
-0.3847336660978927
  0
VERTEX
  5
435
  8
DECOUPE_EXTERNE
 10
509.1413658210531
 20
1115.302515351411
 30
0.0
  0
VERTEX
  5
436
  8
DECOUPE_EXTERNE
 10
505.1617739843185
 20
1154.302515351411
 30
0.0
 42
-0.4443210625736526
  0
VERTEX
  5
437
  8
DECOUPE_EXTERNE
 10
510.135944696975
 20
1159.810083791478
 30
0.0
  0
SEQEND
  5
4FD
  8
DECOUPE_EXTERNE
  0
POLYLINE
  5
B2
  8
DECOUPE_EXTERNE
 66
     1
 10
0.0
 20
0.0
 30
0.0
 70
     1
  0
VERTEX
  5
438
  8
DECOUPE_EXTERNE
 10
559.0634947736901
 20
1159.810083791478
 30
0.0
 42
-0.4142135623730984
  0
VERTEX
  5
439
  8
DECOUPE_EXTERNE
 10
564.0634947736902
 20
1154.810083791478
 30
0.0
  0
VERTEX
  5
43A
  8
DECOUPE_EXTERNE
 10
564.0634947736902
 20
1115.810083791478
 30
0.0
 42
-0.4142135623731022
  0
VERTEX
  5
43B
  8
DECOUPE_EXTERNE
 10
559.0634947736901
 20
1110.810083791478
 30
0.0
  0
VERTEX
  5
43C
  8
DECOUPE_EXTERNE
 10
548.5792541026797
 20
1110.810083791478
 30
0.0
 42
-0.3847336660978927
  0
VERTEX
  5
43D
  8
DECOUPE_EXTERNE
 10
543.6050833900233
 20
1115.302515351411
 30
0.0
  0
VERTEX
  5
43E
  8
DECOUPE_EXTERNE
 10
539.6254915532884
 20
1154.302515351411
 30
0.0
 42
-0.4443210625736526
  0
VERTEX
  5
43F
  8
DECOUPE_EXTERNE
 10
544.5996622659447
 20
1159.810083791478
 30
0.0
  0
SEQEND
  5
4FE
  8
DECOUPE_EXTERNE
  0
POLYLINE
  5
B3
  8
DECOUPE_EXTERNE
 66
     1
 10
0.0
 20
0.0
 30
0.0
 70
     1
  0
VERTEX
  5
440
  8
DECOUPE_EXTERNE
 10
559.0634947736901
 20
1259.927148919261
 30
0.0
 42
-0.4142135623730984
  0
VERTEX
  5
441
  8
DECOUPE_EXTERNE
 10
564.0634947736902
 20
1254.927148919261
 30
0.0
  0
VERTEX
  5
442
  8
DECOUPE_EXTERNE
 10
564.0634947736902
 20
1215.927148919261
 30
0.0
 42
-0.4142135623731022
  0
VERTEX
  5
443
  8
DECOUPE_EXTERNE
 10
559.0634947736901
 20
1210.927148919261
 30
0.0
  0
VERTEX
  5
444
  8
DECOUPE_EXTERNE
 10
548.5792541026797
 20
1210.927148919261
 30
0.0
 42
-0.3847336660978927
  0
VERTEX
  5
445
  8
DECOUPE_EXTERNE
 10
543.6050833900233
 20
1215.419580479194
 30
0.0
  0
VERTEX
  5
446
  8
DECOUPE_EXTERNE
 10
539.6254915532884
 20
1254.419580479194
 30
0.0
 42
-0.4443210625736526
  0
VERTEX
  5
447
  8
DECOUPE_EXTERNE
 10
544.5996622659447
 20
1259.927148919261
 30
0.0
  0
SEQEND
  5
4FF
  8
DECOUPE_EXTERNE
  0
POLYLINE
  5
B4
  8
DECOUPE_EXTERNE
 66
     1
 10
0.0
 20
0.0
 30
0.0
 70
     1
  0
VERTEX
  5
448
  8
DECOUPE_EXTERNE
 10
524.5997772047199
 20
1259.927148919261
 30
0.0
 42
-0.4142135623730984
  0
VERTEX
  5
449
  8
DECOUPE_EXTERNE
 10
529.5997772047203
 20
1254.927148919261
 30
0.0
  0
VERTEX
  5
44A
  8
DECOUPE_EXTERNE
 10
529.5997772047203
 20
1215.927148919261
 30
0.0
 42
-0.4142135623731022
  0
VERTEX
  5
44B
  8
DECOUPE_EXTERNE
 10
524.5997772047199
 20
1210.927148919261
 30
0.0
  0
VERTEX
  5
44C
  8
DECOUPE_EXTERNE
 10
514.1155365337095
 20
1210.927148919261
 30
0.0
 42
-0.3847336660978927
  0
VERTEX
  5
44D
  8
DECOUPE_EXTERNE
 10
509.1413658210531
 20
1215.419580479194
 30
0.0
  0
VERTEX
  5
44E
  8
DECOUPE_EXTERNE
 10
505.1617739843185
 20
1254.419580479194
 30
0.0
 42
-0.4443210625736526
  0
VERTEX
  5
44F
  8
DECOUPE_EXTERNE
 10
510.135944696975
 20
1259.927148919261
 30
0.0
  0
SEQEND
  5
500
  8
DECOUPE_EXTERNE
  0
POLYLINE
  5
B5
  8
DECOUPE_EXTERNE
 66
     1
 10
0.0
 20
0.0
 30
0.0
 70
     1
  0
VERTEX
  5
450
  8
DECOUPE_EXTERNE
 10
2455.815296228938
 20
1250.633343808683
 30
0.0
  0
VERTEX
  5
451
  8
DECOUPE_EXTERNE
 10
2455.815296228938
 20
534.6333438086822
 30
0.0
  0
VERTEX
  5
452
  8
DECOUPE_EXTERNE
 10
639.81529622894
 20
534.6333438086822
 30
0.0
  0
VERTEX
  5
453
  8
DECOUPE_EXTERNE
 10
639.81529622894
 20
1250.633343808683
 30
0.0
  0
SEQEND
  5
501
  8
DECOUPE_EXTERNE
  0
POLYLINE
  5
B6
  8
DECOUPE_EXTERNE
 66
     1
 10
0.0
 20
0.0
 30
0.0
 70
     1
  0
VERTEX
  5
454
  8
DECOUPE_EXTERNE
 10
602.8943749032561
 20
419.8546040194136
 30
0.0
  0
VERTEX
  5
455
  8
DECOUPE_EXTERNE
 10
602.8943749032561
 20
438.8546040194265
 30
0.0
  0
VERTEX
  5
456
  8
DECOUPE_EXTERNE
 10
602.8943749032561
 20
448.8546040194261
 30
0.0
  0
VERTEX
  5
457
  8
DECOUPE_EXTERNE
 10
662.8943749032563
 20
448.8546040194261
 30
0.0
  0
VERTEX
  5
458
  8
DECOUPE_EXTERNE
 10
702.8943749032566
 20
488.8546040194257
 30
0.0
  0
VERTEX
  5
459
  8
DECOUPE_EXTERNE
 10
1202.894374903259
 20
488.8546040194257
 30
0.0
  0
VERTEX
  5
45A
  8
DECOUPE_EXTERNE
 10
1242.894374903259
 20
448.8546040194261
 30
0.0
  0
VERTEX
  5
45B
  8
DECOUPE_EXTERNE
 10
1762.894374903262
 20
448.8546040194261
 30
0.0
  0
VERTEX
  5
45C
  8
DECOUPE_EXTERNE
 10
1802.894374903262
 20
488.8546040194257
 30
0.0
  0
VERTEX
  5
45D
  8
DECOUPE_EXTERNE
 10
2302.894374903267
 20
488.8546040194257
 30
0.0
  0
VERTEX
  5
45E
  8
DECOUPE_EXTERNE
 10
2342.894374903268
 20
448.8546040194261
 30
0.0
  0
VERTEX
  5
45F
  8
DECOUPE_EXTERNE
 10
2402.89437490327
 20
448.8546040194261
 30
0.0
  0
VERTEX
  5
460
  8
DECOUPE_EXTERNE
 10
2402.89437490327
 20
438.8546040194265
 30
0.0
  0
VERTEX
  5
461
  8
DECOUPE_EXTERNE
 10
2402.894374903269
 20
419.8546040194266
 30
0.0
  0
VERTEX
  5
462
  8
DECOUPE_EXTERNE
 10
2404.530413872591
 20
419.8546040194266
 30
0.0
 42
0.7364124857212128
  0
VERTEX
  5
463
  8
DECOUPE_EXTERNE
 10
2412.137419147489
 20
423.8546040194265
 30
0.0
  0
VERTEX
  5
464
  8
DECOUPE_EXTERNE
 10
2452.894374903271
 20
423.8546040194265
 30
0.0
  0
VERTEX
  5
465
  8
DECOUPE_EXTERNE
 10
2462.894374903271
 20
413.8546040194266
 30
0.0
  0
VERTEX
  5
466
  8
DECOUPE_EXTERNE
 10
2462.894374903271
 20
383.854604019427
 30
0.0
  0
VERTEX
  5
467
  8
DECOUPE_EXTERNE
 10
2452.894374903271
 20
373.8546040194271
 30
0.0
  0
VERTEX
  5
468
  8
DECOUPE_EXTERNE
 10
2409.258335933948
 20
373.8546040194271
 30
0.0
 42
0.9999999999999509
  0
VERTEX
  5
469
  8
DECOUPE_EXTERNE
 10
2402.89437490327
 20
367.4906429887486
 30
0.0
  0
VERTEX
  5
46A
  8
DECOUPE_EXTERNE
 10
2402.89437490327
 20
350.2185650501057
 30
0.0
 42
0.9999999999999553
  0
VERTEX
  5
46B
  8
DECOUPE_EXTERNE
 10
2409.258335933948
 20
343.8546040194271
 30
0.0
  0
VERTEX
  5
46C
  8
DECOUPE_EXTERNE
 10
2452.894374903271
 20
343.8546040194271
 30
0.0
  0
VERTEX
  5
46D
  8
DECOUPE_EXTERNE
 10
2462.894374903271
 20
333.8546040194271
 30
0.0
  0
VERTEX
  5
46E
  8
DECOUPE_EXTERNE
 10
2462.894374903271
 20
303.8546040194271
 30
0.0
  0
VERTEX
  5
46F
  8
DECOUPE_EXTERNE
 10
2452.894374903271
 20
293.8546040194271
 30
0.0
  0
VERTEX
  5
470
  8
DECOUPE_EXTERNE
 10
2409.258335933948
 20
293.8546040194271
 30
0.0
 42
0.9999999999999553
  0
VERTEX
  5
471
  8
DECOUPE_EXTERNE
 10
2402.89437490327
 20
287.4906429887486
 30
0.0
  0
VERTEX
  5
472
  8
DECOUPE_EXTERNE
 10
2402.89437490327
 20
268.8546040194271
 30
0.0
  0
VERTEX
  5
473
  8
DECOUPE_EXTERNE
 10
602.8943749032561
 20
268.8546040194271
 30
0.0
  0
VERTEX
  5
474
  8
DECOUPE_EXTERNE
 10
602.8943749032561
 20
287.4906429887482
 30
0.0
 42
0.4142135623730951
  0
VERTEX
  5
475
  8
DECOUPE_EXTERNE
 10
602.8943749032561
 20
293.8546040194271
 30
0.0
 42
0.4142135623730988
  0
VERTEX
  5
476
  8
DECOUPE_EXTERNE
 10
596.5304138725771
 20
293.8546040194271
 30
0.0
  0
VERTEX
  5
477
  8
DECOUPE_EXTERNE
 10
552.8943749032559
 20
293.8546040194271
 30
0.0
  0
VERTEX
  5
478
  8
DECOUPE_EXTERNE
 10
542.8943749032559
 20
303.8546040194271
 30
0.0
  0
VERTEX
  5
479
  8
DECOUPE_EXTERNE
 10
542.8943749032559
 20
333.8546040194271
 30
0.0
  0
VERTEX
  5
47A
  8
DECOUPE_EXTERNE
 10
552.8943749032559
 20
343.8546040194271
 30
0.0
  0
VERTEX
  5
47B
  8
DECOUPE_EXTERNE
 10
596.5304138725771
 20
343.8546040194271
 30
0.0
 42
0.4142135623730973
  0
VERTEX
  5
47C
  8
DECOUPE_EXTERNE
 10
602.8943749032561
 20
343.8546040194271
 30
0.0
 42
0.4142135623730981
  0
VERTEX
  5
47D
  8
DECOUPE_EXTERNE
 10
602.8943749032561
 20
350.2185650501061
 30
0.0
  0
VERTEX
  5
47E
  8
DECOUPE_EXTERNE
 10
602.8943749032561
 20
367.4906429887483
 30
0.0
 42
0.9999999999999988
  0
VERTEX
  5
47F
  8
DECOUPE_EXTERNE
 10
596.5304138725771
 20
373.8546040194271
 30
0.0
  0
VERTEX
  5
480
  8
DECOUPE_EXTERNE
 10
552.8943749032559
 20
373.8546040194271
 30
0.0
  0
VERTEX
  5
481
  8
DECOUPE_EXTERNE
 10
542.8943749032559
 20
383.854604019427
 30
0.0
  0
VERTEX
  5
482
  8
DECOUPE_EXTERNE
 10
542.8943749032559
 20
413.8546040194266
 30
0.0
  0
VERTEX
  5
483
  8
DECOUPE_EXTERNE
 10
552.8943749032559
 20
423.8546040194265
 30
0.0
  0
VERTEX
  5
484
  8
DECOUPE_EXTERNE
 10
593.6513306590359
 20
423.8546040194265
 30
0.0
 42
0.7364124857212607
  0
VERTEX
  5
485
  8
DECOUPE_EXTERNE
 10
601.2583359339351
 20
419.8546040194266
 30
0.0
  0
SEQEND
  5
502
  8
DECOUPE_EXTERNE
  0
POLYLINE
  5
B7
  8
DECOUPE_EXTERNE
 66
     1
 10
0.0
 20
0.0
 30
0.0
 70
     1
  0
VERTEX
  5
486
  8
DECOUPE_EXTERNE
 10
602.8943749032561
 20
186.1365496088624
 30
0.0
  0
VERTEX
  5
487
  8
DECOUPE_EXTERNE
 10
602.8943749032561
 20
205.1365496088754
 30
0.0
  0
VERTEX
  5
488
  8
DECOUPE_EXTERNE
 10
602.8943749032561
 20
215.136549608875
 30
0.0
  0
VERTEX
  5
489
  8
DECOUPE_EXTERNE
 10
662.8943749032563
 20
215.136549608875
 30
0.0
  0
VERTEX
  5
48A
  8
DECOUPE_EXTERNE
 10
702.8943749032566
 20
255.1365496088748
 30
0.0
  0
VERTEX
  5
48B
  8
DECOUPE_EXTERNE
 10
1202.894374903259
 20
255.1365496088748
 30
0.0
  0
VERTEX
  5
48C
  8
DECOUPE_EXTERNE
 10
1242.894374903259
 20
215.136549608875
 30
0.0
  0
VERTEX
  5
48D
  8
DECOUPE_EXTERNE
 10
1762.894374903262
 20
215.136549608875
 30
0.0
  0
VERTEX
  5
48E
  8
DECOUPE_EXTERNE
 10
1802.894374903262
 20
255.1365496088748
 30
0.0
  0
VERTEX
  5
48F
  8
DECOUPE_EXTERNE
 10
2302.894374903267
 20
255.1365496088748
 30
0.0
  0
VERTEX
  5
490
  8
DECOUPE_EXTERNE
 10
2342.894374903268
 20
215.136549608875
 30
0.0
  0
VERTEX
  5
491
  8
DECOUPE_EXTERNE
 10
2402.89437490327
 20
215.136549608875
 30
0.0
  0
VERTEX
  5
492
  8
DECOUPE_EXTERNE
 10
2402.89437490327
 20
205.1365496088754
 30
0.0
  0
VERTEX
  5
493
  8
DECOUPE_EXTERNE
 10
2402.894374903269
 20
186.1365496088754
 30
0.0
  0
VERTEX
  5
494
  8
DECOUPE_EXTERNE
 10
2404.530413872591
 20
186.1365496088754
 30
0.0
 42
0.7364124857212128
  0
VERTEX
  5
495
  8
DECOUPE_EXTERNE
 10
2412.137419147489
 20
190.1365496088754
 30
0.0
  0
VERTEX
  5
496
  8
DECOUPE_EXTERNE
 10
2452.894374903271
 20
190.1365496088754
 30
0.0
  0
VERTEX
  5
497
  8
DECOUPE_EXTERNE
 10
2462.894374903271
 20
180.1365496088754
 30
0.0
  0
VERTEX
  5
498
  8
DECOUPE_EXTERNE
 10
2462.894374903271
 20
150.1365496088757
 30
0.0
  0
VERTEX
  5
499
  8
DECOUPE_EXTERNE
 10
2452.894374903271
 20
140.1365496088759
 30
0.0
  0
VERTEX
  5
49A
  8
DECOUPE_EXTERNE
 10
2409.258335933948
 20
140.1365496088759
 30
0.0
 42
0.9999999999999509
  0
VERTEX
  5
49B
  8
DECOUPE_EXTERNE
 10
2402.89437490327
 20
133.7725885781973
 30
0.0
  0
VERTEX
  5
49C
  8
DECOUPE_EXTERNE
 10
2402.89437490327
 20
116.5005106395544
 30
0.0
 42
0.9999999999999553
  0
VERTEX
  5
49D
  8
DECOUPE_EXTERNE
 10
2409.258335933948
 20
110.1365496088758
 30
0.0
  0
VERTEX
  5
49E
  8
DECOUPE_EXTERNE
 10
2452.894374903271
 20
110.1365496088758
 30
0.0
  0
VERTEX
  5
49F
  8
DECOUPE_EXTERNE
 10
2462.894374903271
 20
100.1365496088757
 30
0.0
  0
VERTEX
  5
4A0
  8
DECOUPE_EXTERNE
 10
2462.894374903271
 20
70.13654960887564
 30
0.0
  0
VERTEX
  5
4A1
  8
DECOUPE_EXTERNE
 10
2452.894374903271
 20
60.13654960887561
 30
0.0
  0
VERTEX
  5
4A2
  8
DECOUPE_EXTERNE
 10
2409.258335933948
 20
60.13654960887561
 30
0.0
 42
0.9999999999999553
  0
VERTEX
  5
4A3
  8
DECOUPE_EXTERNE
 10
2402.89437490327
 20
53.772588578197
 30
0.0
  0
VERTEX
  5
4A4
  8
DECOUPE_EXTERNE
 10
2402.89437490327
 20
35.13654960887558
 30
0.0
  0
VERTEX
  5
4A5
  8
DECOUPE_EXTERNE
 10
602.8943749032561
 20
35.13654960887558
 30
0.0
  0
VERTEX
  5
4A6
  8
DECOUPE_EXTERNE
 10
602.8943749032561
 20
53.7725885781966
 30
0.0
 42
0.4142135623730951
  0
VERTEX
  5
4A7
  8
DECOUPE_EXTERNE
 10
602.8943749032561
 20
60.13654960887561
 30
0.0
 42
0.4142135623730988
  0
VERTEX
  5
4A8
  8
DECOUPE_EXTERNE
 10
596.5304138725771
 20
60.13654960887561
 30
0.0
  0
VERTEX
  5
4A9
  8
DECOUPE_EXTERNE
 10
552.8943749032559
 20
60.13654960887561
 30
0.0
  0
VERTEX
  5
4AA
  8
DECOUPE_EXTERNE
 10
542.8943749032559
 20
70.13654960887564
 30
0.0
  0
VERTEX
  5
4AB
  8
DECOUPE_EXTERNE
 10
542.8943749032559
 20
100.1365496088757
 30
0.0
  0
VERTEX
  5
4AC
  8
DECOUPE_EXTERNE
 10
552.8943749032559
 20
110.1365496088758
 30
0.0
  0
VERTEX
  5
4AD
  8
DECOUPE_EXTERNE
 10
596.5304138725771
 20
110.1365496088758
 30
0.0
 42
0.4142135623730973
  0
VERTEX
  5
4AE
  8
DECOUPE_EXTERNE
 10
602.8943749032561
 20
110.1365496088758
 30
0.0
 42
0.4142135623730981
  0
VERTEX
  5
4AF
  8
DECOUPE_EXTERNE
 10
602.8943749032561
 20
116.5005106395547
 30
0.0
  0
VERTEX
  5
4B0
  8
DECOUPE_EXTERNE
 10
602.8943749032561
 20
133.772588578197
 30
0.0
 42
0.9999999999999988
  0
VERTEX
  5
4B1
  8
DECOUPE_EXTERNE
 10
596.5304138725771
 20
140.1365496088759
 30
0.0
  0
VERTEX
  5
4B2
  8
DECOUPE_EXTERNE
 10
552.8943749032559
 20
140.1365496088759
 30
0.0
  0
VERTEX
  5
4B3
  8
DECOUPE_EXTERNE
 10
542.8943749032559
 20
150.1365496088757
 30
0.0
  0
VERTEX
  5
4B4
  8
DECOUPE_EXTERNE
 10
542.8943749032559
 20
180.1365496088754
 30
0.0
  0
VERTEX
  5
4B5
  8
DECOUPE_EXTERNE
 10
552.8943749032559
 20
190.1365496088754
 30
0.0
  0
VERTEX
  5
4B6
  8
DECOUPE_EXTERNE
 10
593.6513306590359
 20
190.1365496088754
 30
0.0
 42
0.7364124857212607
  0
VERTEX
  5
4B7
  8
DECOUPE_EXTERNE
 10
601.2583359339351
 20
186.1365496088754
 30
0.0
  0
SEQEND
  5
503
  8
DECOUPE_EXTERNE
  0
ENDSEC
  0
EOF
