  0
SECTION
  2
HEADER
  9
$ACADVER
  1
AC1021
  9
$ACADMAINTVER
 70
    25
  9
$DWGCODEPAGE
  3
ANSI_1252
  9
$INSBASE
 10
0.0
 20
0.0
 30
0.0
  9
$EXTMIN
 10
-111.6762
 20
31.5468
 30
0.0
  9
$EXTMAX
 10
-55.6
 20
87.623
 30
0.0
  9
$LIMMIN
 10
0.0
 20
0.0
  9
$LIMMAX
 10
12.0
 20
9.0
  9
$ORTHOMODE
 70
     0
  9
$REGENMODE
 70
     1
  9
$FILLMODE
 70
     1
  9
$QTEXTMODE
 70
     0
  9
$MIRRTEXT
 70
     1
  9
$LTSCALE
 40
1.0
  9
$ATTMODE
 70
     1
  9
$TEXTSIZE
 40
0.2
  9
$TRACEWID
 40
0.05
  9
$TEXTSTYLE
  7
Standard
  9
$CLAYER
  8
0
  9
$CELTYPE
  6
ByLayer
  9
$CECOLOR
 62
   256
  9
$CELTSCALE
 40
1.0
  9
$DISPSILH
 70
     0
  9
$DIMSCALE
 40
1.0
  9
$DIMASZ
 40
0.18
  9
$DIMEXO
 40
0.0625
  9
$DIMDLI
 40
0.38
  9
$DIMRND
 40
0.0
  9
$DIMDLE
 40
0.0
  9
$DIMEXE
 40
0.18
  9
$DIMTP
 40
0.0
  9
$DIMTM
 40
0.0
  9
$DIMTXT
 40
0.18
  9
$DIMCEN
 40
0.09
  9
$DIMTSZ
 40
0.0
  9
$DIMTOL
 70
     0
  9
$DIMLIM
 70
     0
  9
$DIMTIH
 70
     1
  9
$DIMTOH
 70
     1
  9
$DIMSE1
 70
     0
  9
$DIMSE2
 70
     0
  9
$DIMTAD
 70
     0
  9
$DIMZIN
 70
     0
  9
$DIMBLK
  1

  9
$DIMASO
 70
     1
  9
$DIMSHO
 70
     1
  9
$DIMPOST
  1

  9
$DIMAPOST
  1

  9
$DIMALT
 70
     0
  9
$DIMALTD
 70
     2
  9
$DIMALTF
 40
25.4
  9
$DIMLFAC
 40
1.0
  9
$DIMTOFL
 70
     0
  9
$DIMTVP
 40
0.0
  9
$DIMTIX
 70
     0
  9
$DIMSOXD
 70
     0
  9
$DIMSAH
 70
     0
  9
$DIMBLK1
  1

  9
$DIMBLK2
  1

  9
$DIMSTYLE
  2
Standard
  9
$DIMCLRD
 70
     0
  9
$DIMCLRE
 70
     0
  9
$DIMCLRT
 70
     0
  9
$DIMTFAC
 40
1.0
  9
$DIMGAP
 40
0.09
  9
$DIMJUST
 70
     0
  9
$DIMSD1
 70
     0
  9
$DIMSD2
 70
     0
  9
$DIMTOLJ
 70
     1
  9
$DIMTZIN
 70
     0
  9
$DIMALTZ
 70
     0
  9
$DIMALTTZ
 70
     0
  9
$DIMUPT
 70
     0
  9
$DIMDEC
 70
     4
  9
$DIMTDEC
 70
     4
  9
$DIMALTU
 70
     2
  9
$DIMALTTD
 70
     2
  9
$DIMTXSTY
  7
Standard
  9
$DIMAUNIT
 70
     0
  9
$DIMADEC
 70
     0
  9
$DIMALTRND
 40
0.0
  9
$DIMAZIN
 70
     0
  9
$DIMDSEP
 70
    46
  9
$DIMATFIT
 70
     3
  9
$DIMFRAC
 70
     0
  9
$DIMLDRBLK
  1

  9
$DIMLUNIT
 70
     2
  9
$DIMLWD
 70
    -2
  9
$DIMLWE
 70
    -2
  9
$DIMTMOVE
 70
     0
  9
$DIMFXL
 40
1.0
  9
$DIMFXLON
 70
     0
  9
$DIMJOGANG
 40
0.7853981633974483
  9
$DIMTFILL
 70
     0
  9
$DIMTFILLCLR
 70
     0
  9
$DIMARCSYM
 70
     0
  9
$DIMLTYPE
  6

  9
$DIMLTEX1
  6

  9
$DIMLTEX2
  6

  9
$LUNITS
 70
     2
  9
$LUPREC
 70
     4
  9
$SKETCHINC
 40
0.1
  9
$FILLETRAD
 40
0.5
  9
$AUNITS
 70
     0
  9
$AUPREC
 70
     0
  9
$MENU
  1
.
  9
$ELEVATION
 40
0.0
  9
$PELEVATION
 40
0.0
  9
$THICKNESS
 40
0.0
  9
$LIMCHECK
 70
     0
  9
$CHAMFERA
 40
0.0
  9
$CHAMFERB
 40
0.0
  9
$CHAMFERC
 40
0.0
  9
$CHAMFERD
 40
0.0
  9
$SKPOLY
 70
     0
  9
$TDCREATE
 40
2458160.483432512
  9
$TDUCREATE
 40
2458160.441765845
  9
$TDUPDATE
 40
2458160.483432766
  9
$TDUUPDATE
 40
2458160.4417661
  9
$TDINDWG
 40
0.0000000116
  9
$TDUSRTIMER
 40
0.0000000116
  9
$USRTIMER
 70
     1
  9
$ANGBASE
 50
0.0
  9
$ANGDIR
 70
     0
  9
$PDMODE
 70
     0
  9
$PDSIZE
 40
0.0
  9
$PLINEWID
 40
0.0
  9
$SPLFRAME
 70
     0
  9
$SPLINETYPE
 70
     6
  9
$SPLINESEGS
 70
     8
  9
$HANDSEED
  5
10C
  9
$SURFTAB1
 70
     6
  9
$SURFTAB2
 70
     6
  9
$SURFTYPE
 70
     6
  9
$SURFU
 70
     6
  9
$SURFV
 70
     6
  9
$UCSBASE
  2

  9
$UCSNAME
  2

  9
$UCSORG
 10
0.0
 20
0.0
 30
0.0
  9
$UCSXDIR
 10
1.0
 20
0.0
 30
0.0
  9
$UCSYDIR
 10
0.0
 20
1.0
 30
0.0
  9
$UCSORTHOREF
  2

  9
$UCSORTHOVIEW
 70
     0
  9
$UCSORGTOP
 10
0.0
 20
0.0
 30
0.0
  9
$UCSORGBOTTOM
 10
0.0
 20
0.0
 30
0.0
  9
$UCSORGLEFT
 10
0.0
 20
0.0
 30
0.0
  9
$UCSORGRIGHT
 10
0.0
 20
0.0
 30
0.0
  9
$UCSORGFRONT
 10
0.0
 20
0.0
 30
0.0
  9
$UCSORGBACK
 10
0.0
 20
0.0
 30
0.0
  9
$PUCSBASE
  2

  9
$PUCSNAME
  2

  9
$PUCSORG
 10
0.0
 20
0.0
 30
0.0
  9
$PUCSXDIR
 10
1.0
 20
0.0
 30
0.0
  9
$PUCSYDIR
 10
0.0
 20
1.0
 30
0.0
  9
$PUCSORTHOREF
  2

  9
$PUCSORTHOVIEW
 70
     0
  9
$PUCSORGTOP
 10
0.0
 20
0.0
 30
0.0
  9
$PUCSORGBOTTOM
 10
0.0
 20
0.0
 30
0.0
  9
$PUCSORGLEFT
 10
0.0
 20
0.0
 30
0.0
  9
$PUCSORGRIGHT
 10
0.0
 20
0.0
 30
0.0
  9
$PUCSORGFRONT
 10
0.0
 20
0.0
 30
0.0
  9
$PUCSORGBACK
 10
0.0
 20
0.0
 30
0.0
  9
$USERI1
 70
     0
  9
$USERI2
 70
     0
  9
$USERI3
 70
     0
  9
$USERI4
 70
     0
  9
$USERI5
 70
     0
  9
$USERR1
 40
0.0
  9
$USERR2
 40
0.0
  9
$USERR3
 40
0.0
  9
$USERR4
 40
0.0
  9
$USERR5
 40
0.0
  9
$WORLDVIEW
 70
     1
  9
$SHADEDGE
 70
     3
  9
$SHADEDIF
 70
    70
  9
$TILEMODE
 70
     1
  9
$MAXACTVP
 70
    64
  9
$PINSBASE
 10
0.0
 20
0.0
 30
0.0
  9
$PLIMCHECK
 70
     0
  9
$PEXTMIN
 10
1.000000000000000E+20
 20
1.000000000000000E+20
 30
1.000000000000000E+20
  9
$PEXTMAX
 10
-1.000000000000000E+20
 20
-1.000000000000000E+20
 30
-1.000000000000000E+20
  9
$PLIMMIN
 10
0.0
 20
0.0
  9
$PLIMMAX
 10
12.0
 20
9.0
  9
$UNITMODE
 70
     0
  9
$VISRETAIN
 70
     1
  9
$PLINEGEN
 70
     0
  9
$PSLTSCALE
 70
     1
  9
$TREEDEPTH
 70
  3020
  9
$CMLSTYLE
  2
Standard
  9
$CMLJUST
 70
     0
  9
$CMLSCALE
 40
1.0
  9
$PROXYGRAPHICS
 70
     1
  9
$MEASUREMENT
 70
     0
  9
$CELWEIGHT
370
    -1
  9
$ENDCAPS
280
     0
  9
$JOINSTYLE
280
     0
  9
$LWDISPLAY
290
     0
  9
$INSUNITS
 70
     4
  9
$HYPERLINKBASE
  1

  9
$STYLESHEET
  1

  9
$XEDIT
290
     1
  9
$CEPSNTYPE
380
     0
  9
$PSTYLEMODE
290
     1
  9
$FINGERPRINTGUID
  2
{07449345-CABB-4309-A88D-66DF12EE71B7}
  9
$VERSIONGUID
  2
{FAEB1C32-E019-11D5-929B-00C0DF256EC4}
  9
$EXTNAMES
290
     1
  9
$PSVPSCALE
 40
0.0
  9
$OLESTARTUP
290
     0
  9
$SORTENTS
280
   127
  9
$INDEXCTL
280
     0
  9
$HIDETEXT
280
     1
  9
$XCLIPFRAME
290
     0
  9
$HALOGAP
280
     0
  9
$OBSCOLOR
 70
   257
  9
$OBSLTYPE
280
     0
  9
$INTERSECTIONDISPLAY
280
     0
  9
$INTERSECTIONCOLOR
 70
   257
  9
$DIMASSOC
280
     2
  9
$PROJECTNAME
  1

  9
$CAMERADISPLAY
290
     0
  9
$LENSLENGTH
 40
50.0
  9
$CAMERAHEIGHT
 40
0.0
  9
$STEPSPERSEC
 40
2.0
  9
$STEPSIZE
 40
6.0
  9
$3DDWFPREC
 40
2.0
  9
$PSOLWIDTH
 40
0.25
  9
$PSOLHEIGHT
 40
4.0
  9
$LOFTANG1
 40
1.570796326794897
  9
$LOFTANG2
 40
1.570796326794897
  9
$LOFTMAG1
 40
0.0
  9
$LOFTMAG2
 40
0.0
  9
$LOFTPARAM
 70
     7
  9
$LOFTNORMALS
280
     1
  9
$LATITUDE
 40
37.795
  9
$LONGITUDE
 40
-122.394
  9
$NORTHDIRECTION
 40
0.0
  9
$TIMEZONE
 70
 -8000
  9
$LIGHTGLYPHDISPLAY
280
     1
  9
$TILEMODELIGHTSYNCH
280
     1
  9
$CMATERIAL
347
44
  9
$SOLIDHIST
280
     0
  9
$SHOWHIST
280
     1
  9
$DWFFRAME
280
     2
  9
$DGNFRAME
280
     2
  9
$REALWORLDSCALE
290
     1
  9
$INTERFERECOLOR
 62
   256
  9
$CSHADOW
280
     0
  9
$SHADOWPLANELOCATION
 40
0.0
  0
ENDSEC
  0
SECTION
  2
CLASSES
  0
CLASS
  1
ACDBDICTIONARYWDFLT
  2
AcDbDictionaryWithDefault
  3
ObjectDBX Classes
 90
        0
 91
        4
280
     0
281
     0
  0
CLASS
  1
VISUALSTYLE
  2
AcDbVisualStyle
  3
ObjectDBX Classes
 90
     4095
 91
        4
280
     0
281
     0
  0
CLASS
  1
MATERIAL
  2
AcDbMaterial
  3
ObjectDBX Classes
 90
     1153
 91
        4
280
     0
281
     0
  0
CLASS
  1
SCALE
  2
AcDbScale
  3
ObjectDBX Classes
 90
     1153
 91
        4
280
     0
281
     0
  0
CLASS
  1
TABLESTYLE
  2
AcDbTableStyle
  3
ObjectDBX Classes
 90
     4095
 91
        4
280
     0
281
     0
  0
CLASS
  1
MLEADERSTYLE
  2
AcDbMLeaderStyle
  3
ACDB_MLEADERSTYLE_CLASS
 90
     4095
 91
        4
280
     0
281
     0
  0
CLASS
  1
SUN
  2
AcDbSun
  3
SCENEOE
 90
     1153
 91
        4
280
     0
281
     0
  0
CLASS
  1
DICTIONARYVAR
  2
AcDbDictionaryVar
  3
ObjectDBX Classes
 90
        0
 91
        4
280
     0
281
     0
  0
CLASS
  1
CELLSTYLEMAP
  2
AcDbCellStyleMap
  3
ObjectDBX Classes
 90
     1152
 91
        4
280
     0
281
     0
  0
ENDSEC
  0
SECTION
  2
TABLES
  0
TABLE
  2
VPORT
  5
8
330
0
100
AcDbSymbolTable
 70
     1
  0
VPORT
  5
29
330
8
100
AcDbSymbolTableRecord
100
AcDbViewportTableRecord
  2
*Active
 70
     0
 10
0.0
 20
0.0
 11
1.0
 21
1.0
 12
10.42990654205607
 22
4.5
 13
0.0
 23
0.0
 14
0.5
 24
0.5
 15
0.5
 25
0.5
 16
0.0
 26
0.0
 36
1.0
 17
0.0
 27
0.0
 37
0.0
 40
9.0
 41
1.972972972850329
 42
50.0
 43
0.0
 44
0.0
 50
0.0
 51
0.0
 71
     0
 72
   100
 73
     1
 74
     3
 75
     0
 76
     0
 77
     0
 78
     0
281
     0
 65
     1
110
0.0
120
0.0
130
0.0
111
1.0
121
0.0
131
0.0
112
0.0
122
1.0
132
0.0
 79
     0
146
0.0
348
2F
 60
     3
 61
     5
292
     1
282
     1
141
0.0
142
0.0
 63
   250
361
6D
  0
ENDTAB
  0
TABLE
  2
LTYPE
  5
5
330
0
100
AcDbSymbolTable
 70
     1
  0
LTYPE
  5
14
330
5
100
AcDbSymbolTableRecord
100
AcDbLinetypeTableRecord
  2
ByBlock
 70
     0
  3

 72
    65
 73
     0
 40
0.0
  0
LTYPE
  5
15
330
5
100
AcDbSymbolTableRecord
100
AcDbLinetypeTableRecord
  2
ByLayer
 70
     0
  3

 72
    65
 73
     0
 40
0.0
  0
LTYPE
  5
16
330
5
100
AcDbSymbolTableRecord
100
AcDbLinetypeTableRecord
  2
Continuous
 70
     0
  3
Solid line
 72
    65
 73
     0
 40
0.0
  0
ENDTAB
  0
TABLE
  2
LAYER
  5
2
330
0
100
AcDbSymbolTable
 70
     1
  0
LAYER
  5
10
330
2
100
AcDbSymbolTableRecord
100
AcDbLayerTableRecord
  2
0
 70
     0
 62
     7
  6
Continuous
370
    -3
390
F
347
46
  0
ENDTAB
  0
TABLE
  2
STYLE
  5
3
330
0
100
AcDbSymbolTable
 70
     1
  0
STYLE
  5
11
330
3
100
AcDbSymbolTableRecord
100
AcDbTextStyleTableRecord
  2
Standard
 70
     0
 40
0.0
 41
1.0
 50
0.0
 71
     0
 42
0.2
  3
txt
  4

  0
ENDTAB
  0
TABLE
  2
VIEW
  5
6
330
0
100
AcDbSymbolTable
 70
     0
  0
ENDTAB
  0
TABLE
  2
UCS
  5
7
330
0
100
AcDbSymbolTable
 70
     0
  0
ENDTAB
  0
TABLE
  2
APPID
  5
9
330
0
100
AcDbSymbolTable
 70
     3
  0
APPID
  5
12
330
9
100
AcDbSymbolTableRecord
100
AcDbRegAppTableRecord
  2
ACAD
 70
     0
  0
APPID
  5
6E
330
9
100
AcDbSymbolTableRecord
100
AcDbRegAppTableRecord
  2
ODA
 70
     0
  0
APPID
  5
104
330
9
100
AcDbSymbolTableRecord
100
AcDbRegAppTableRecord
  2
ACAD_MLEADERVER
 70
     0
  0
ENDTAB
  0
TABLE
  2
DIMSTYLE
  5
A
330
0
100
AcDbSymbolTable
 70
     1
100
AcDbDimStyleTable
  0
DIMSTYLE
105
27
330
A
100
AcDbSymbolTableRecord
100
AcDbDimStyleTableRecord
  2
Standard
 70
     0
178
     0
340
11
  0
ENDTAB
  0
TABLE
  2
BLOCK_RECORD
  5
1
330
0
100
AcDbSymbolTable
 70
     1
  0
BLOCK_RECORD
  5
1F
330
1
100
AcDbSymbolTableRecord
100
AcDbBlockTableRecord
  2
*Model_Space
340
22
 70
     0
280
     1
281
     0
  0
BLOCK_RECORD
  5
1B
330
1
100
AcDbSymbolTableRecord
100
AcDbBlockTableRecord
  2
*Paper_Space
340
1E
 70
     0
280
     1
281
     0
  0
BLOCK_RECORD
  5
23
330
1
100
AcDbSymbolTableRecord
100
AcDbBlockTableRecord
  2
*Paper_Space0
340
26
 70
     0
280
     1
281
     0
  0
ENDTAB
  0
ENDSEC
  0
SECTION
  2
BLOCKS
  0
BLOCK
  5
20
330
1F
100
AcDbEntity
  8
0
100
AcDbBlockBegin
  2
*Model_Space
 70
     0
 10
0.0
 20
0.0
 30
0.0
  3
*Model_Space
  1

  0
ENDBLK
  5
21
330
1F
100
AcDbEntity
  8
0
100
AcDbBlockEnd
  0
BLOCK
  5
1C
330
1B
100
AcDbEntity
 67
     1
  8
0
100
AcDbBlockBegin
  2
*Paper_Space
 70
     0
 10
0.0
 20
0.0
 30
0.0
  3
*Paper_Space
  1

  0
ENDBLK
  5
1D
330
1B
100
AcDbEntity
 67
     1
  8
0
100
AcDbBlockEnd
  0
BLOCK
  5
24
330
23
100
AcDbEntity
  8
0
100
AcDbBlockBegin
  2
*Paper_Space0
 70
     0
 10
0.0
 20
0.0
 30
0.0
  3
*Paper_Space0
  1

  0
ENDBLK
  5
25
330
23
100
AcDbEntity
  8
0
100
AcDbBlockEnd
  0
ENDSEC
  0
SECTION
  2
ENTITIES
  0
SPLINE
  5
6F
330
1F
100
AcDbEntity
  8
0
370
     9
100
AcDbSpline
210
0.0
220
0.0
230
1.0
 70
    24
 71
     3
 72
     8
 73
     4
 74
     0
 42
0.000000001
 43
0.0000000001
 40
0.0
 40
0.0
 40
0.0
 40
0.0
 40
1.0
 40
1.0
 40
1.0
 40
1.0
 10
-103.6381
 20
39.5849
 30
0.0
 10
-103.6381
 20
39.5849
 30
0.0
 10
-95.6381
 20
39.5849
 30
0.0
 10
-95.6381
 20
39.5849
 30
0.0
  0
SPLINE
  5
70
330
1F
100
AcDbEntity
  8
0
370
     9
100
AcDbSpline
210
0.0
220
0.0
230
1.0
 70
    24
 71
     3
 72
     8
 73
     4
 74
     0
 42
0.000000001
 43
0.0000000001
 40
0.0
 40
0.0
 40
0.0
 40
0.0
 40
1.0
 40
1.0
 40
1.0
 40
1.0
 10
-95.6381
 20
39.5849
 30
0.0
 10
-95.6381
 20
39.5849
 30
0.0
 10
-95.6381
 20
47.5849
 30
0.0
 10
-95.6381
 20
47.5849
 30
0.0
  0
SPLINE
  5
71
330
1F
100
AcDbEntity
  8
0
370
     9
100
AcDbSpline
210
0.0
220
0.0
230
1.0
 70
    24
 71
     3
 72
     8
 73
     4
 74
     0
 42
0.000000001
 43
0.0000000001
 40
0.0
 40
0.0
 40
0.0
 40
0.0
 40
1.0
 40
1.0
 40
1.0
 40
1.0
 10
-95.6381
 20
47.5849
 30
0.0
 10
-95.6381
 20
47.5849
 30
0.0
 10
-103.6381
 20
47.5849
 30
0.0
 10
-103.6381
 20
47.5849
 30
0.0
  0
SPLINE
  5
72
330
1F
100
AcDbEntity
  8
0
370
     9
100
AcDbSpline
210
0.0
220
0.0
230
1.0
 70
    24
 71
     3
 72
     8
 73
     4
 74
     0
 42
0.000000001
 43
0.0000000001
 40
0.0
 40
0.0
 40
0.0
 40
0.0
 40
1.0
 40
1.0
 40
1.0
 40
1.0
 10
-103.6381
 20
47.5849
 30
0.0
 10
-103.6381
 20
47.5849
 30
0.0
 10
-103.6381
 20
39.5849
 30
0.0
 10
-103.6381
 20
39.5849
 30
0.0
  0
SPLINE
  5
73
330
1F
100
AcDbEntity
  8
0
370
     9
100
AcDbSpline
210
0.0
220
0.0
230
1.0
 70
    24
 71
     3
 72
     8
 73
     4
 74
     0
 42
0.000000001
 43
0.0000000001
 40
0.0
 40
0.0
 40
0.0
 40
0.0
 40
1.0
 40
1.0
 40
1.0
 40
1.0
 10
-71.6381
 20
39.5849
 30
0.0
 10
-71.6381
 20
39.5849
 30
0.0
 10
-63.6381
 20
39.5849
 30
0.0
 10
-63.6381
 20
39.5849
 30
0.0
  0
SPLINE
  5
74
330
1F
100
AcDbEntity
  8
0
370
     9
100
AcDbSpline
210
0.0
220
0.0
230
1.0
 70
    24
 71
     3
 72
     8
 73
     4
 74
     0
 42
0.000000001
 43
0.0000000001
 40
0.0
 40
0.0
 40
0.0
 40
0.0
 40
1.0
 40
1.0
 40
1.0
 40
1.0
 10
-63.6381
 20
39.5849
 30
0.0
 10
-63.6381
 20
39.5849
 30
0.0
 10
-63.6381
 20
47.5849
 30
0.0
 10
-63.6381
 20
47.5849
 30
0.0
  0
SPLINE
  5
75
330
1F
100
AcDbEntity
  8
0
370
     9
100
AcDbSpline
210
0.0
220
0.0
230
1.0
 70
    24
 71
     3
 72
     8
 73
     4
 74
     0
 42
0.000000001
 43
0.0000000001
 40
0.0
 40
0.0
 40
0.0
 40
0.0
 40
1.0
 40
1.0
 40
1.0
 40
1.0
 10
-63.6381
 20
47.5849
 30
0.0
 10
-63.6381
 20
47.5849
 30
0.0
 10
-71.6381
 20
47.5849
 30
0.0
 10
-71.6381
 20
47.5849
 30
0.0
  0
SPLINE
  5
76
330
1F
100
AcDbEntity
  8
0
370
     9
100
AcDbSpline
210
0.0
220
0.0
230
1.0
 70
    24
 71
     3
 72
     8
 73
     4
 74
     0
 42
0.000000001
 43
0.0000000001
 40
0.0
 40
0.0
 40
0.0
 40
0.0
 40
1.0
 40
1.0
 40
1.0
 40
1.0
 10
-71.6381
 20
47.5849
 30
0.0
 10
-71.6381
 20
47.5849
 30
0.0
 10
-71.6381
 20
39.5849
 30
0.0
 10
-71.6381
 20
39.5849
 30
0.0
  0
SPLINE
  5
77
330
1F
100
AcDbEntity
  8
0
370
     9
100
AcDbSpline
210
0.0
220
0.0
230
1.0
 70
    24
 71
     3
 72
     8
 73
     4
 74
     0
 42
0.000000001
 43
0.0000000001
 40
0.0
 40
0.0
 40
0.0
 40
0.0
 40
1.0
 40
1.0
 40
1.0
 40
1.0
 10
-71.6381
 20
55.5849
 30
0.0
 10
-71.6381
 20
55.5849
 30
0.0
 10
-63.6381
 20
55.5849
 30
0.0
 10
-63.6381
 20
55.5849
 30
0.0
  0
SPLINE
  5
78
330
1F
100
AcDbEntity
  8
0
370
     9
100
AcDbSpline
210
0.0
220
0.0
230
1.0
 70
    24
 71
     3
 72
     8
 73
     4
 74
     0
 42
0.000000001
 43
0.0000000001
 40
0.0
 40
0.0
 40
0.0
 40
0.0
 40
1.0
 40
1.0
 40
1.0
 40
1.0
 10
-63.6381
 20
55.5849
 30
0.0
 10
-63.6381
 20
55.5849
 30
0.0
 10
-63.6381
 20
63.5849
 30
0.0
 10
-63.6381
 20
63.5849
 30
0.0
  0
SPLINE
  5
79
330
1F
100
AcDbEntity
  8
0
370
     9
100
AcDbSpline
210
0.0
220
0.0
230
1.0
 70
    24
 71
     3
 72
     8
 73
     4
 74
     0
 42
0.000000001
 43
0.0000000001
 40
0.0
 40
0.0
 40
0.0
 40
0.0
 40
1.0
 40
1.0
 40
1.0
 40
1.0
 10
-63.6381
 20
63.5849
 30
0.0
 10
-63.6381
 20
63.5849
 30
0.0
 10
-71.6381
 20
63.5849
 30
0.0
 10
-71.6381
 20
63.5849
 30
0.0
  0
SPLINE
  5
7A
330
1F
100
AcDbEntity
  8
0
370
     9
100
AcDbSpline
210
0.0
220
0.0
230
1.0
 70
    24
 71
     3
 72
     8
 73
     4
 74
     0
 42
0.000000001
 43
0.0000000001
 40
0.0
 40
0.0
 40
0.0
 40
0.0
 40
1.0
 40
1.0
 40
1.0
 40
1.0
 10
-71.6381
 20
63.5849
 30
0.0
 10
-71.6381
 20
63.5849
 30
0.0
 10
-71.6381
 20
55.5849
 30
0.0
 10
-71.6381
 20
55.5849
 30
0.0
  0
SPLINE
  5
7B
330
1F
100
AcDbEntity
  8
0
370
     9
100
AcDbSpline
210
0.0
220
0.0
230
1.0
 70
    24
 71
     3
 72
     8
 73
     4
 74
     0
 42
0.000000001
 43
0.0000000001
 40
0.0
 40
0.0
 40
0.0
 40
0.0
 40
1.0
 40
1.0
 40
1.0
 40
1.0
 10
-71.6381
 20
71.5849
 30
0.0
 10
-71.6381
 20
71.5849
 30
0.0
 10
-63.6381
 20
71.5849
 30
0.0
 10
-63.6381
 20
71.5849
 30
0.0
  0
SPLINE
  5
7C
330
1F
100
AcDbEntity
  8
0
370
     9
100
AcDbSpline
210
0.0
220
0.0
230
1.0
 70
    24
 71
     3
 72
     8
 73
     4
 74
     0
 42
0.000000001
 43
0.0000000001
 40
0.0
 40
0.0
 40
0.0
 40
0.0
 40
1.0
 40
1.0
 40
1.0
 40
1.0
 10
-63.6381
 20
71.5849
 30
0.0
 10
-63.6381
 20
71.5849
 30
0.0
 10
-63.6381
 20
79.5849
 30
0.0
 10
-63.6381
 20
79.5849
 30
0.0
  0
SPLINE
  5
7D
330
1F
100
AcDbEntity
  8
0
370
     9
100
AcDbSpline
210
0.0
220
0.0
230
1.0
 70
    24
 71
     3
 72
     8
 73
     4
 74
     0
 42
0.000000001
 43
0.0000000001
 40
0.0
 40
0.0
 40
0.0
 40
0.0
 40
1.0
 40
1.0
 40
1.0
 40
1.0
 10
-63.6381
 20
79.5849
 30
0.0
 10
-63.6381
 20
79.5849
 30
0.0
 10
-71.6381
 20
79.5849
 30
0.0
 10
-71.6381
 20
79.5849
 30
0.0
  0
SPLINE
  5
7E
330
1F
100
AcDbEntity
  8
0
370
     9
100
AcDbSpline
210
0.0
220
0.0
230
1.0
 70
    24
 71
     3
 72
     8
 73
     4
 74
     0
 42
0.000000001
 43
0.0000000001
 40
0.0
 40
0.0
 40
0.0
 40
0.0
 40
1.0
 40
1.0
 40
1.0
 40
1.0
 10
-71.6381
 20
79.5849
 30
0.0
 10
-71.6381
 20
79.5849
 30
0.0
 10
-71.6381
 20
71.5849
 30
0.0
 10
-71.6381
 20
71.5849
 30
0.0
  0
SPLINE
  5
7F
330
1F
100
AcDbEntity
  8
0
370
     9
100
AcDbSpline
210
0.0
220
0.0
230
1.0
 70
    24
 71
     3
 72
     8
 73
     4
 74
     0
 42
0.000000001
 43
0.0000000001
 40
0.0
 40
0.0
 40
0.0
 40
0.0
 40
1.0
 40
1.0
 40
1.0
 40
1.0
 10
-103.6381
 20
71.5849
 30
0.0
 10
-103.6381
 20
71.5849
 30
0.0
 10
-95.6381
 20
71.5849
 30
0.0
 10
-95.6381
 20
71.5849
 30
0.0
  0
SPLINE
  5
80
330
1F
100
AcDbEntity
  8
0
370
     9
100
AcDbSpline
210
0.0
220
0.0
230
1.0
 70
    24
 71
     3
 72
     8
 73
     4
 74
     0
 42
0.000000001
 43
0.0000000001
 40
0.0
 40
0.0
 40
0.0
 40
0.0
 40
1.0
 40
1.0
 40
1.0
 40
1.0
 10
-95.6381
 20
71.5849
 30
0.0
 10
-95.6381
 20
71.5849
 30
0.0
 10
-95.6381
 20
79.5849
 30
0.0
 10
-95.6381
 20
79.5849
 30
0.0
  0
SPLINE
  5
81
330
1F
100
AcDbEntity
  8
0
370
     9
100
AcDbSpline
210
0.0
220
0.0
230
1.0
 70
    24
 71
     3
 72
     8
 73
     4
 74
     0
 42
0.000000001
 43
0.0000000001
 40
0.0
 40
0.0
 40
0.0
 40
0.0
 40
1.0
 40
1.0
 40
1.0
 40
1.0
 10
-95.6381
 20
79.5849
 30
0.0
 10
-95.6381
 20
79.5849
 30
0.0
 10
-103.6381
 20
79.5849
 30
0.0
 10
-103.6381
 20
79.5849
 30
0.0
  0
SPLINE
  5
82
330
1F
100
AcDbEntity
  8
0
370
     9
100
AcDbSpline
210
0.0
220
0.0
230
1.0
 70
    24
 71
     3
 72
     8
 73
     4
 74
     0
 42
0.000000001
 43
0.0000000001
 40
0.0
 40
0.0
 40
0.0
 40
0.0
 40
1.0
 40
1.0
 40
1.0
 40
1.0
 10
-103.6381
 20
79.5849
 30
0.0
 10
-103.6381
 20
79.5849
 30
0.0
 10
-103.6381
 20
71.5849
 30
0.0
 10
-103.6381
 20
71.5849
 30
0.0
  0
SPLINE
  5
83
330
1F
100
AcDbEntity
  8
0
370
     9
100
AcDbSpline
210
0.0
220
0.0
230
1.0
 70
    24
 71
     3
 72
     8
 73
     4
 74
     0
 42
0.000000001
 43
0.0000000001
 40
0.0
 40
0.0
 40
0.0
 40
0.0
 40
1.0
 40
1.0
 40
1.0
 40
1.0
 10
-55.6381
 20
87.5849
 30
0.0
 10
-55.6381
 20
87.5849
 30
0.0
 10
-111.6381
 20
87.5849
 30
0.0
 10
-111.6381
 20
87.5849
 30
0.0
  0
SPLINE
  5
84
330
1F
100
AcDbEntity
  8
0
370
     9
100
AcDbSpline
210
0.0
220
0.0
230
1.0
 70
    24
 71
     3
 72
     8
 73
     4
 74
     0
 42
0.000000001
 43
0.0000000001
 40
0.0
 40
0.0
 40
0.0
 40
0.0
 40
1.0
 40
1.0
 40
1.0
 40
1.0
 10
-55.6381
 20
31.5849
 30
0.0
 10
-55.6381
 20
31.5849
 30
0.0
 10
-55.6381
 20
87.5849
 30
0.0
 10
-55.6381
 20
87.5849
 30
0.0
  0
SPLINE
  5
85
330
1F
100
AcDbEntity
  8
0
370
     9
100
AcDbSpline
210
0.0
220
0.0
230
1.0
 70
    24
 71
     3
 72
     8
 73
     4
 74
     0
 42
0.000000001
 43
0.0000000001
 40
0.0
 40
0.0
 40
0.0
 40
0.0
 40
1.0
 40
1.0
 40
1.0
 40
1.0
 10
-111.6381
 20
31.5849
 30
0.0
 10
-111.6381
 20
31.5849
 30
0.0
 10
-55.6381
 20
31.5849
 30
0.0
 10
-55.6381
 20
31.5849
 30
0.0
  0
SPLINE
  5
86
330
1F
100
AcDbEntity
  8
0
370
     9
100
AcDbSpline
210
0.0
220
0.0
230
1.0
 70
    24
 71
     3
 72
     8
 73
     4
 74
     0
 42
0.000000001
 43
0.0000000001
 40
0.0
 40
0.0
 40
0.0
 40
0.0
 40
1.0
 40
1.0
 40
1.0
 40
1.0
 10
-111.6381
 20
87.5849
 30
0.0
 10
-111.6381
 20
87.5849
 30
0.0
 10
-111.6381
 20
31.5849
 30
0.0
 10
-111.6381
 20
31.5849
 30
0.0
  0
SPLINE
  5
87
330
1F
100
AcDbEntity
  8
0
370
     9
100
AcDbSpline
210
0.0
220
0.0
230
1.0
 70
    24
 71
     3
 72
     8
 73
     4
 74
     0
 42
0.000000001
 43
0.0000000001
 40
0.0
 40
0.0
 40
0.0
 40
0.0
 40
1.0
 40
1.0
 40
1.0
 40
1.0
 10
-87.6381
 20
71.5849
 30
0.0
 10
-87.6381
 20
71.5849
 30
0.0
 10
-79.6381
 20
71.5849
 30
0.0
 10
-79.6381
 20
71.5849
 30
0.0
  0
SPLINE
  5
88
330
1F
100
AcDbEntity
  8
0
370
     9
100
AcDbSpline
210
0.0
220
0.0
230
1.0
 70
    24
 71
     3
 72
     8
 73
     4
 74
     0
 42
0.000000001
 43
0.0000000001
 40
0.0
 40
0.0
 40
0.0
 40
0.0
 40
1.0
 40
1.0
 40
1.0
 40
1.0
 10
-79.6381
 20
71.5849
 30
0.0
 10
-79.6381
 20
71.5849
 30
0.0
 10
-79.6381
 20
79.5849
 30
0.0
 10
-79.6381
 20
79.5849
 30
0.0
  0
SPLINE
  5
89
330
1F
100
AcDbEntity
  8
0
370
     9
100
AcDbSpline
210
0.0
220
0.0
230
1.0
 70
    24
 71
     3
 72
     8
 73
     4
 74
     0
 42
0.000000001
 43
0.0000000001
 40
0.0
 40
0.0
 40
0.0
 40
0.0
 40
1.0
 40
1.0
 40
1.0
 40
1.0
 10
-79.6381
 20
79.5849
 30
0.0
 10
-79.6381
 20
79.5849
 30
0.0
 10
-87.6381
 20
79.5849
 30
0.0
 10
-87.6381
 20
79.5849
 30
0.0
  0
SPLINE
  5
8A
330
1F
100
AcDbEntity
  8
0
370
     9
100
AcDbSpline
210
0.0
220
0.0
230
1.0
 70
    24
 71
     3
 72
     8
 73
     4
 74
     0
 42
0.000000001
 43
0.0000000001
 40
0.0
 40
0.0
 40
0.0
 40
0.0
 40
1.0
 40
1.0
 40
1.0
 40
1.0
 10
-87.6381
 20
79.5849
 30
0.0
 10
-87.6381
 20
79.5849
 30
0.0
 10
-87.6381
 20
71.5849
 30
0.0
 10
-87.6381
 20
71.5849
 30
0.0
  0
SPLINE
  5
8B
330
1F
100
AcDbEntity
  8
0
370
     9
100
AcDbSpline
210
0.0
220
0.0
230
1.0
 70
    24
 71
     3
 72
     8
 73
     4
 74
     0
 42
0.000000001
 43
0.0000000001
 40
0.0
 40
0.0
 40
0.0
 40
0.0
 40
1.0
 40
1.0
 40
1.0
 40
1.0
 10
-87.6381
 20
55.5849
 30
0.0
 10
-87.6381
 20
55.5849
 30
0.0
 10
-79.6381
 20
55.5849
 30
0.0
 10
-79.6381
 20
55.5849
 30
0.0
  0
SPLINE
  5
8C
330
1F
100
AcDbEntity
  8
0
370
     9
100
AcDbSpline
210
0.0
220
0.0
230
1.0
 70
    24
 71
     3
 72
     8
 73
     4
 74
     0
 42
0.000000001
 43
0.0000000001
 40
0.0
 40
0.0
 40
0.0
 40
0.0
 40
1.0
 40
1.0
 40
1.0
 40
1.0
 10
-79.6381
 20
55.5849
 30
0.0
 10
-79.6381
 20
55.5849
 30
0.0
 10
-79.6381
 20
63.5849
 30
0.0
 10
-79.6381
 20
63.5849
 30
0.0
  0
SPLINE
  5
8D
330
1F
100
AcDbEntity
  8
0
370
     9
100
AcDbSpline
210
0.0
220
0.0
230
1.0
 70
    24
 71
     3
 72
     8
 73
     4
 74
     0
 42
0.000000001
 43
0.0000000001
 40
0.0
 40
0.0
 40
0.0
 40
0.0
 40
1.0
 40
1.0
 40
1.0
 40
1.0
 10
-79.6381
 20
63.5849
 30
0.0
 10
-79.6381
 20
63.5849
 30
0.0
 10
-87.6381
 20
63.5849
 30
0.0
 10
-87.6381
 20
63.5849
 30
0.0
  0
SPLINE
  5
8E
330
1F
100
AcDbEntity
  8
0
370
     9
100
AcDbSpline
210
0.0
220
0.0
230
1.0
 70
    24
 71
     3
 72
     8
 73
     4
 74
     0
 42
0.000000001
 43
0.0000000001
 40
0.0
 40
0.0
 40
0.0
 40
0.0
 40
1.0
 40
1.0
 40
1.0
 40
1.0
 10
-87.6381
 20
63.5849
 30
0.0
 10
-87.6381
 20
63.5849
 30
0.0
 10
-87.6381
 20
55.5849
 30
0.0
 10
-87.6381
 20
55.5849
 30
0.0
  0
SPLINE
  5
8F
330
1F
100
AcDbEntity
  8
0
370
     9
100
AcDbSpline
210
0.0
220
0.0
230
1.0
 70
    24
 71
     3
 72
     8
 73
     4
 74
     0
 42
0.000000001
 43
0.0000000001
 40
0.0
 40
0.0
 40
0.0
 40
0.0
 40
1.0
 40
1.0
 40
1.0
 40
1.0
 10
-87.6381
 20
39.5849
 30
0.0
 10
-87.6381
 20
39.5849
 30
0.0
 10
-79.6381
 20
39.5849
 30
0.0
 10
-79.6381
 20
39.5849
 30
0.0
  0
SPLINE
  5
90
330
1F
100
AcDbEntity
  8
0
370
     9
100
AcDbSpline
210
0.0
220
0.0
230
1.0
 70
    24
 71
     3
 72
     8
 73
     4
 74
     0
 42
0.000000001
 43
0.0000000001
 40
0.0
 40
0.0
 40
0.0
 40
0.0
 40
1.0
 40
1.0
 40
1.0
 40
1.0
 10
-79.6381
 20
39.5849
 30
0.0
 10
-79.6381
 20
39.5849
 30
0.0
 10
-79.6381
 20
47.5849
 30
0.0
 10
-79.6381
 20
47.5849
 30
0.0
  0
SPLINE
  5
91
330
1F
100
AcDbEntity
  8
0
370
     9
100
AcDbSpline
210
0.0
220
0.0
230
1.0
 70
    24
 71
     3
 72
     8
 73
     4
 74
     0
 42
0.000000001
 43
0.0000000001
 40
0.0
 40
0.0
 40
0.0
 40
0.0
 40
1.0
 40
1.0
 40
1.0
 40
1.0
 10
-79.6381
 20
47.5849
 30
0.0
 10
-79.6381
 20
47.5849
 30
0.0
 10
-87.6381
 20
47.5849
 30
0.0
 10
-87.6381
 20
47.5849
 30
0.0
  0
SPLINE
  5
92
330
1F
100
AcDbEntity
  8
0
370
     9
100
AcDbSpline
210
0.0
220
0.0
230
1.0
 70
    24
 71
     3
 72
     8
 73
     4
 74
     0
 42
0.000000001
 43
0.0000000001
 40
0.0
 40
0.0
 40
0.0
 40
0.0
 40
1.0
 40
1.0
 40
1.0
 40
1.0
 10
-87.6381
 20
47.5849
 30
0.0
 10
-87.6381
 20
47.5849
 30
0.0
 10
-87.6381
 20
39.5849
 30
0.0
 10
-87.6381
 20
39.5849
 30
0.0
  0
SPLINE
  5
93
330
1F
100
AcDbEntity
  8
0
370
     9
100
AcDbSpline
210
0.0
220
0.0
230
1.0
 70
    24
 71
     3
 72
     8
 73
     4
 74
     0
 42
0.000000001
 43
0.0000000001
 40
0.0
 40
0.0
 40
0.0
 40
0.0
 40
1.0
 40
1.0
 40
1.0
 40
1.0
 10
-103.6381
 20
55.5849
 30
0.0
 10
-103.6381
 20
55.5849
 30
0.0
 10
-95.6381
 20
55.5849
 30
0.0
 10
-95.6381
 20
55.5849
 30
0.0
  0
SPLINE
  5
94
330
1F
100
AcDbEntity
  8
0
370
     9
100
AcDbSpline
210
0.0
220
0.0
230
1.0
 70
    24
 71
     3
 72
     8
 73
     4
 74
     0
 42
0.000000001
 43
0.0000000001
 40
0.0
 40
0.0
 40
0.0
 40
0.0
 40
1.0
 40
1.0
 40
1.0
 40
1.0
 10
-95.6381
 20
55.5849
 30
0.0
 10
-95.6381
 20
55.5849
 30
0.0
 10
-95.6381
 20
63.5849
 30
0.0
 10
-95.6381
 20
63.5849
 30
0.0
  0
SPLINE
  5
95
330
1F
100
AcDbEntity
  8
0
370
     9
100
AcDbSpline
210
0.0
220
0.0
230
1.0
 70
    24
 71
     3
 72
     8
 73
     4
 74
     0
 42
0.000000001
 43
0.0000000001
 40
0.0
 40
0.0
 40
0.0
 40
0.0
 40
1.0
 40
1.0
 40
1.0
 40
1.0
 10
-95.6381
 20
63.5849
 30
0.0
 10
-95.6381
 20
63.5849
 30
0.0
 10
-103.6381
 20
63.5849
 30
0.0
 10
-103.6381
 20
63.5849
 30
0.0
  0
SPLINE
  5
96
330
1F
100
AcDbEntity
  8
0
370
     9
100
AcDbSpline
210
0.0
220
0.0
230
1.0
 70
    24
 71
     3
 72
     8
 73
     4
 74
     0
 42
0.000000001
 43
0.0000000001
 40
0.0
 40
0.0
 40
0.0
 40
0.0
 40
1.0
 40
1.0
 40
1.0
 40
1.0
 10
-103.6381
 20
63.5849
 30
0.0
 10
-103.6381
 20
63.5849
 30
0.0
 10
-103.6381
 20
55.5849
 30
0.0
 10
-103.6381
 20
55.5849
 30
0.0
  0
SPLINE
  5
97
330
1F
100
AcDbEntity
  8
0
 62
     1
100
AcDbSpline
210
0.0
220
0.0
230
1.0
 70
    11
 71
     3
 72
    52
 73
    48
 74
     0
 42
0.000000001
 43
0.0000000001
 40
0.0
 40
0.0
 40
0.0
 40
0.0
 40
0.0769230769230769
 40
0.0769230769230769
 40
0.0769230769230769
 40
0.0769230769230769
 40
0.1538461538461539
 40
0.1538461538461539
 40
0.1538461538461539
 40
0.1538461538461539
 40
0.2307692307692308
 40
0.2307692307692308
 40
0.2307692307692308
 40
0.2307692307692308
 40
0.3076923076923077
 40
0.3076923076923077
 40
0.3076923076923077
 40
0.3076923076923077
 40
0.3846153846153846
 40
0.3846153846153846
 40
0.3846153846153846
 40
0.3846153846153846
 40
0.4615384615384616
 40
0.4615384615384616
 40
0.4615384615384616
 40
0.4615384615384616
 40
0.5384615384615384
 40
0.5384615384615384
 40
0.5384615384615384
 40
0.5384615384615384
 40
0.6153846153846154
 40
0.6153846153846154
 40
0.6153846153846154
 40
0.6153846153846154
 40
0.6923076923076923
 40
0.6923076923076923
 40
0.6923076923076923
 40
0.6923076923076923
 40
0.7692307692307693
 40
0.7692307692307693
 40
0.7692307692307693
 40
0.7692307692307693
 40
0.8461538461538461
 40
0.8461538461538461
 40
0.8461538461538461
 40
0.8461538461538461
 40
1.0
 40
1.0
 40
1.0
 40
1.0
 10
-108.3137
 20
32.503
 30
0.0
 10
-108.3137
 20
32.503
 30
0.0
 10
-108.3137
 20
34.2711
 30
0.0
 10
-108.3137
 20
34.2711
 30
0.0
 10
-108.3137
 20
34.2711
 30
0.0
 10
-108.3137
 20
34.2711
 30
0.0
 10
-107.037
 20
34.2711
 30
0.0
 10
-107.037
 20
34.2711
 30
0.0
 10
-107.037
 20
34.2711
 30
0.0
 10
-107.037
 20
34.2711
 30
0.0
 10
-107.037
 20
34.0637
 30
0.0
 10
-107.037
 20
34.0637
 30
0.0
 10
-107.037
 20
34.0637
 30
0.0
 10
-107.037
 20
34.0637
 30
0.0
 10
-108.0791
 20
34.0637
 30
0.0
 10
-108.0791
 20
34.0637
 30
0.0
 10
-108.0791
 20
34.0637
 30
0.0
 10
-108.0791
 20
34.0637
 30
0.0
 10
-108.0791
 20
33.5204
 30
0.0
 10
-108.0791
 20
33.5204
 30
0.0
 10
-108.0791
 20
33.5204
 30
0.0
 10
-108.0791
 20
33.5204
 30
0.0
 10
-107.1037
 20
33.5204
 30
0.0
 10
-107.1037
 20
33.5204
 30
0.0
 10
-107.1037
 20
33.5204
 30
0.0
 10
-107.1037
 20
33.5204
 30
0.0
 10
-107.1037
 20
33.313
 30
0.0
 10
-107.1037
 20
33.313
 30
0.0
 10
-107.1037
 20
33.313
 30
0.0
 10
-107.1037
 20
33.313
 30
0.0
 10
-108.0791
 20
33.313
 30
0.0
 10
-108.0791
 20
33.313
 30
0.0
 10
-108.0791
 20
33.313
 30
0.0
 10
-108.0791
 20
33.313
 30
0.0
 10
-108.0791
 20
32.7104
 30
0.0
 10
-108.0791
 20
32.7104
 30
0.0
 10
-108.0791
 20
32.7104
 30
0.0
 10
-108.0791
 20
32.7104
 30
0.0
 10
-106.9951
 20
32.7104
 30
0.0
 10
-106.9951
 20
32.7104
 30
0.0
 10
-106.9951
 20
32.7104
 30
0.0
 10
-106.9951
 20
32.7104
 30
0.0
 10
-106.9951
 20
32.503
 30
0.0
 10
-106.9951
 20
32.503
 30
0.0
 10
-106.9951
 20
32.503
 30
0.0
 10
-106.9951
 20
32.503
 30
0.0
 10
-108.3137
 20
32.503
 30
0.0
 10
-108.3137
 20
32.503
 30
0.0
  0
SPLINE
  5
98
330
1F
100
AcDbEntity
  8
0
 62
     1
100
AcDbSpline
210
0.0
220
0.0
230
1.0
 70
    11
 71
     3
 72
   144
 73
   140
 74
     0
 42
0.000000001
 43
0.0000000001
 40
0.0
 40
0.0
 40
0.0
 40
0.0
 40
0.0277777777777778
 40
0.0277777777777778
 40
0.0277777777777778
 40
0.0277777777777778
 40
0.0555555555555556
 40
0.0555555555555556
 40
0.0555555555555556
 40
0.0555555555555556
 40
0.0833333333333333
 40
0.0833333333333333
 40
0.0833333333333333
 40
0.0833333333333333
 40
0.1111111111111111
 40
0.1111111111111111
 40
0.1111111111111111
 40
0.1111111111111111
 40
0.1388888888888889
 40
0.1388888888888889
 40
0.1388888888888889
 40
0.1388888888888889
 40
0.1666666666666667
 40
0.1666666666666667
 40
0.1666666666666667
 40
0.1666666666666667
 40
0.1944444444444444
 40
0.1944444444444444
 40
0.1944444444444444
 40
0.1944444444444444
 40
0.2222222222222222
 40
0.2222222222222222
 40
0.2222222222222222
 40
0.2222222222222222
 40
0.25
 40
0.25
 40
0.25
 40
0.25
 40
0.2777777777777778
 40
0.2777777777777778
 40
0.2777777777777778
 40
0.2777777777777778
 40
0.3055555555555556
 40
0.3055555555555556
 40
0.3055555555555556
 40
0.3055555555555556
 40
0.3333333333333333
 40
0.3333333333333333
 40
0.3333333333333333
 40
0.3333333333333333
 40
0.3611111111111111
 40
0.3611111111111111
 40
0.3611111111111111
 40
0.3611111111111111
 40
0.3888888888888889
 40
0.3888888888888889
 40
0.3888888888888889
 40
0.3888888888888889
 40
0.4166666666666667
 40
0.4166666666666667
 40
0.4166666666666667
 40
0.4166666666666667
 40
0.4444444444444444
 40
0.4444444444444444
 40
0.4444444444444444
 40
0.4444444444444444
 40
0.4722222222222222
 40
0.4722222222222222
 40
0.4722222222222222
 40
0.4722222222222222
 40
0.5
 40
0.5
 40
0.5
 40
0.5
 40
0.5277777777777778
 40
0.5277777777777778
 40
0.5277777777777778
 40
0.5277777777777778
 40
0.5555555555555556
 40
0.5555555555555556
 40
0.5555555555555556
 40
0.5555555555555556
 40
0.5833333333333334
 40
0.5833333333333334
 40
0.5833333333333334
 40
0.5833333333333334
 40
0.6111111111111112
 40
0.6111111111111112
 40
0.6111111111111112
 40
0.6111111111111112
 40
0.6388888888888888
 40
0.6388888888888888
 40
0.6388888888888888
 40
0.6388888888888888
 40
0.6666666666666666
 40
0.6666666666666666
 40
0.6666666666666666
 40
0.6666666666666666
 40
0.6944444444444444
 40
0.6944444444444444
 40
0.6944444444444444
 40
0.6944444444444444
 40
0.7222222222222222
 40
0.7222222222222222
 40
0.7222222222222222
 40
0.7222222222222222
 40
0.75
 40
0.75
 40
0.75
 40
0.75
 40
0.7777777777777778
 40
0.7777777777777778
 40
0.7777777777777778
 40
0.7777777777777778
 40
0.8055555555555556
 40
0.8055555555555556
 40
0.8055555555555556
 40
0.8055555555555556
 40
0.8333333333333334
 40
0.8333333333333334
 40
0.8333333333333334
 40
0.8333333333333334
 40
0.8611111111111112
 40
0.8611111111111112
 40
0.8611111111111112
 40
0.8611111111111112
 40
0.8888888888888888
 40
0.8888888888888888
 40
0.8888888888888888
 40
0.8888888888888888
 40
0.9166666666666666
 40
0.9166666666666666
 40
0.9166666666666666
 40
0.9166666666666666
 40
0.9444444444444444
 40
0.9444444444444444
 40
0.9444444444444444
 40
0.9444444444444444
 40
1.0
 40
1.0
 40
1.0
 40
1.0
 10
-106.7481
 20
33.071
 30
0.0
 10
-106.7481
 20
33.071
 30
0.0
 10
-106.5283
 20
33.0907
 30
0.0
 10
-106.5283
 20
33.0907
 30
0.0
 10
-106.5283
 20
33.0907
 30
0.0
 10
-106.518
 20
33.0018
 30
0.0
 10
-106.4938
 20
32.929
 30
0.0
 10
-106.4555
 20
32.8718
 30
0.0
 10
-106.4555
 20
32.8718
 30
0.0
 10
-106.4172
 20
32.815
 30
0.0
 10
-106.3579
 20
32.7689
 30
0.0
 10
-106.2777
 20
32.7335
 30
0.0
 10
-106.2777
 20
32.7335
 30
0.0
 10
-106.1974
 20
32.6985
 30
0.0
 10
-106.1069
 20
32.6808
 30
0.0
 10
-106.0065
 20
32.6808
 30
0.0
 10
-106.0065
 20
32.6808
 30
0.0
 10
-105.9172
 20
32.6808
 30
0.0
 10
-105.8385
 20
32.694
 30
0.0
 10
-105.7702
 20
32.7207
 30
0.0
 10
-105.7702
 20
32.7207
 30
0.0
 10
-105.7019
 20
32.7475
 30
0.0
 10
-105.6513
 20
32.7841
 30
0.0
 10
-105.6179
 20
32.8306
 30
0.0
 10
-105.6179
 20
32.8306
 30
0.0
 10
-105.5846
 20
32.8771
 30
0.0
 10
-105.5677
 20
32.9277
 30
0.0
 10
-105.5677
 20
32.9821
 30
0.0
 10
-105.5677
 20
32.9821
 30
0.0
 10
-105.5677
 20
33.0372
 30
0.0
 10
-105.5838
 20
33.0854
 30
0.0
 10
-105.6159
 20
33.1269
 30
0.0
 10
-105.6159
 20
33.1269
 30
0.0
 10
-105.648
 20
33.1681
 30
0.0
 10
-105.7011
 20
33.2027
 30
0.0
 10
-105.7752
 20
33.2311
 30
0.0
 10
-105.7752
 20
33.2311
 30
0.0
 10
-105.8225
 20
33.2492
 30
0.0
 10
-105.9274
 20
33.278
 30
0.0
 10
-106.09
 20
33.3171
 30
0.0
 10
-106.09
 20
33.3171
 30
0.0
 10
-106.2526
 20
33.3562
 30
0.0
 10
-106.3662
 20
33.3928
 30
0.0
 10
-106.4312
 20
33.4274
 30
0.0
 10
-106.4312
 20
33.4274
 30
0.0
 10
-106.5156
 20
33.4718
 30
0.0
 10
-106.5781
 20
33.527
 30
0.0
 10
-106.6193
 20
33.5924
 30
0.0
 10
-106.6193
 20
33.5924
 30
0.0
 10
-106.6609
 20
33.6579
 30
0.0
 10
-106.6814
 20
33.7315
 30
0.0
 10
-106.6814
 20
33.8126
 30
0.0
 10
-106.6814
 20
33.8126
 30
0.0
 10
-106.6814
 20
33.9023
 30
0.0
 10
-106.6559
 20
33.9859
 30
0.0
 10
-106.6053
 20
34.0632
 30
0.0
 10
-106.6053
 20
34.0632
 30
0.0
 10
-106.5547
 20
34.141
 30
0.0
 10
-106.481
 20
34.1999
 30
0.0
 10
-106.3835
 20
34.2402
 30
0.0
 10
-106.3835
 20
34.2402
 30
0.0
 10
-106.2863
 20
34.2806
 30
0.0
 10
-106.1781
 20
34.3007
 30
0.0
 10
-106.0591
 20
34.3007
 30
0.0
 10
-106.0591
 20
34.3007
 30
0.0
 10
-105.9283
 20
34.3007
 30
0.0
 10
-105.8126
 20
34.2797
 30
0.0
 10
-105.7126
 20
34.2373
 30
0.0
 10
-105.7126
 20
34.2373
 30
0.0
 10
-105.6126
 20
34.1954
 30
0.0
 10
-105.5356
 20
34.1332
 30
0.0
 10
-105.4817
 20
34.0509
 30
0.0
 10
-105.4817
 20
34.0509
 30
0.0
 10
-105.4278
 20
33.969
 30
0.0
 10
-105.399
 20
33.876
 30
0.0
 10
-105.3949
 20
33.7723
 30
0.0
 10
-105.3949
 20
33.7723
 30
0.0
 10
-105.3949
 20
33.7723
 30
0.0
 10
-105.6196
 20
33.755
 30
0.0
 10
-105.6196
 20
33.755
 30
0.0
 10
-105.6196
 20
33.755
 30
0.0
 10
-105.6315
 20
33.8665
 30
0.0
 10
-105.6723
 20
33.9509
 30
0.0
 10
-105.7418
 20
34.0077
 30
0.0
 10
-105.7418
 20
34.0077
 30
0.0
 10
-105.8114
 20
34.0649
 30
0.0
 10
-105.9143
 20
34.0933
 30
0.0
 10
-106.0501
 20
34.0933
 30
0.0
 10
-106.0501
 20
34.0933
 30
0.0
 10
-106.1917
 20
34.0933
 30
0.0
 10
-106.295
 20
34.0674
 30
0.0
 10
-106.3596
 20
34.0155
 30
0.0
 10
-106.3596
 20
34.0155
 30
0.0
 10
-106.4242
 20
33.9637
 30
0.0
 10
-106.4567
 20
33.9011
 30
0.0
 10
-106.4567
 20
33.8278
 30
0.0
 10
-106.4567
 20
33.8278
 30
0.0
 10
-106.4567
 20
33.7645
 30
0.0
 10
-106.4337
 20
33.7122
 30
0.0
 10
-106.388
 20
33.671
 30
0.0
 10
-106.388
 20
33.671
 30
0.0
 10
-106.3427
 20
33.6303
 30
0.0
 10
-106.2254
 20
33.5879
 30
0.0
 10
-106.0353
 20
33.5451
 30
0.0
 10
-106.0353
 20
33.5451
 30
0.0
 10
-105.8451
 20
33.5019
 30
0.0
 10
-105.7147
 20
33.4644
 30
0.0
 10
-105.6439
 20
33.4323
 30
0.0
 10
-105.6439
 20
33.4323
 30
0.0
 10
-105.5414
 20
33.385
 30
0.0
 10
-105.4653
 20
33.3253
 30
0.0
 10
-105.4163
 20
33.2525
 30
0.0
 10
-105.4163
 20
33.2525
 30
0.0
 10
-105.3673
 20
33.18
 30
0.0
 10
-105.343
 20
33.0965
 30
0.0
 10
-105.343
 20
33.0018
 30
0.0
 10
-105.343
 20
33.0018
 30
0.0
 10
-105.343
 20
32.9076
 30
0.0
 10
-105.3698
 20
32.8195
 30
0.0
 10
-105.4237
 20
32.7364
 30
0.0
 10
-105.4237
 20
32.7364
 30
0.0
 10
-105.4776
 20
32.6532
 30
0.0
 10
-105.5546
 20
32.5886
 30
0.0
 10
-105.6554
 20
32.5425
 30
0.0
 10
-105.6554
 20
32.5425
 30
0.0
 10
-105.7562
 20
32.4964
 30
0.0
 10
-105.8694
 20
32.4734
 30
0.0
 10
-105.9958
 20
32.4734
 30
0.0
 10
-105.9958
 20
32.4734
 30
0.0
 10
-106.1555
 20
32.4734
 30
0.0
 10
-106.2892
 20
32.4968
 30
0.0
 10
-106.397
 20
32.5433
 30
0.0
 10
-106.397
 20
32.5433
 30
0.0
 10
-106.5053
 20
32.5898
 30
0.0
 10
-106.5897
 20
32.6598
 30
0.0
 10
-106.651
 20
32.7536
 30
0.0
 10
-106.651
 20
32.7536
 30
0.0
 10
-106.7127
 20
32.8471
 30
0.0
 10
-106.7448
 20
32.9528
 30
0.0
 10
-106.7481
 20
33.071
 30
0.0
  0
SPLINE
  5
99
330
1F
100
AcDbEntity
  8
0
 62
     1
100
AcDbSpline
210
0.0
220
0.0
230
1.0
 70
    11
 71
     3
 72
    64
 73
    60
 74
     0
 42
0.000000001
 43
0.0000000001
 40
0.0
 40
0.0
 40
0.0
 40
0.0
 40
0.0625
 40
0.0625
 40
0.0625
 40
0.0625
 40
0.125
 40
0.125
 40
0.125
 40
0.125
 40
0.1875
 40
0.1875
 40
0.1875
 40
0.1875
 40
0.25
 40
0.25
 40
0.25
 40
0.25
 40
0.3125
 40
0.3125
 40
0.3125
 40
0.3125
 40
0.375
 40
0.375
 40
0.375
 40
0.375
 40
0.4375
 40
0.4375
 40
0.4375
 40
0.4375
 40
0.5
 40
0.5
 40
0.5
 40
0.5
 40
0.5625
 40
0.5625
 40
0.5625
 40
0.5625
 40
0.625
 40
0.625
 40
0.625
 40
0.625
 40
0.6875
 40
0.6875
 40
0.6875
 40
0.6875
 40
0.75
 40
0.75
 40
0.75
 40
0.75
 40
0.8125
 40
0.8125
 40
0.8125
 40
0.8125
 40
0.875
 40
0.875
 40
0.875
 40
0.875
 40
1.0
 40
1.0
 40
1.0
 40
1.0
 10
-105.0294
 20
32.503
 30
0.0
 10
-105.0294
 20
32.503
 30
0.0
 10
-105.0294
 20
34.2711
 30
0.0
 10
-105.0294
 20
34.2711
 30
0.0
 10
-105.0294
 20
34.2711
 30
0.0
 10
-105.0294
 20
34.2711
 30
0.0
 10
-104.6787
 20
34.2711
 30
0.0
 10
-104.6787
 20
34.2711
 30
0.0
 10
-104.6787
 20
34.2711
 30
0.0
 10
-104.6787
 20
34.2711
 30
0.0
 10
-104.2606
 20
33.0195
 30
0.0
 10
-104.2606
 20
33.0195
 30
0.0
 10
-104.2606
 20
33.0195
 30
0.0
 10
-104.2219
 20
32.903
 30
0.0
 10
-104.1939
 20
32.8158
 30
0.0
 10
-104.1762
 20
32.7578
 30
0.0
 10
-104.1762
 20
32.7578
 30
0.0
 10
-104.1561
 20
32.822
 30
0.0
 10
-104.1244
 20
32.9166
 30
0.0
 10
-104.0816
 20
33.0413
 30
0.0
 10
-104.0816
 20
33.0413
 30
0.0
 10
-104.0816
 20
33.0413
 30
0.0
 10
-103.656
 20
34.2711
 30
0.0
 10
-103.656
 20
34.2711
 30
0.0
 10
-103.656
 20
34.2711
 30
0.0
 10
-103.656
 20
34.2711
 30
0.0
 10
-103.3428
 20
34.2711
 30
0.0
 10
-103.3428
 20
34.2711
 30
0.0
 10
-103.3428
 20
34.2711
 30
0.0
 10
-103.3428
 20
34.2711
 30
0.0
 10
-103.3428
 20
32.503
 30
0.0
 10
-103.3428
 20
32.503
 30
0.0
 10
-103.3428
 20
32.503
 30
0.0
 10
-103.3428
 20
32.503
 30
0.0
 10
-103.5675
 20
32.503
 30
0.0
 10
-103.5675
 20
32.503
 30
0.0
 10
-103.5675
 20
32.503
 30
0.0
 10
-103.5675
 20
32.503
 30
0.0
 10
-103.5675
 20
33.9822
 30
0.0
 10
-103.5675
 20
33.9822
 30
0.0
 10
-103.5675
 20
33.9822
 30
0.0
 10
-103.5675
 20
33.9822
 30
0.0
 10
-104.0836
 20
32.503
 30
0.0
 10
-104.0836
 20
32.503
 30
0.0
 10
-104.0836
 20
32.503
 30
0.0
 10
-104.0836
 20
32.503
 30
0.0
 10
-104.2943
 20
32.503
 30
0.0
 10
-104.2943
 20
32.503
 30
0.0
 10
-104.2943
 20
32.503
 30
0.0
 10
-104.2943
 20
32.503
 30
0.0
 10
-104.8047
 20
34.0093
 30
0.0
 10
-104.8047
 20
34.0093
 30
0.0
 10
-104.8047
 20
34.0093
 30
0.0
 10
-104.8047
 20
34.0093
 30
0.0
 10
-104.8047
 20
32.503
 30
0.0
 10
-104.8047
 20
32.503
 30
0.0
 10
-104.8047
 20
32.503
 30
0.0
 10
-104.8047
 20
32.503
 30
0.0
 10
-105.0294
 20
32.503
 30
0.0
 10
-105.0294
 20
32.503
 30
0.0
  0
SPLINE
  5
9A
330
1F
100
AcDbEntity
  8
0
 62
     1
100
AcDbSpline
210
0.0
220
0.0
230
1.0
 70
    11
 71
     3
 72
    52
 73
    48
 74
     0
 42
0.000000001
 43
0.0000000001
 40
0.0
 40
0.0
 40
0.0
 40
0.0
 40
0.0769230769230769
 40
0.0769230769230769
 40
0.0769230769230769
 40
0.0769230769230769
 40
0.1538461538461539
 40
0.1538461538461539
 40
0.1538461538461539
 40
0.1538461538461539
 40
0.2307692307692308
 40
0.2307692307692308
 40
0.2307692307692308
 40
0.2307692307692308
 40
0.3076923076923077
 40
0.3076923076923077
 40
0.3076923076923077
 40
0.3076923076923077
 40
0.3846153846153846
 40
0.3846153846153846
 40
0.3846153846153846
 40
0.3846153846153846
 40
0.4615384615384616
 40
0.4615384615384616
 40
0.4615384615384616
 40
0.4615384615384616
 40
0.5384615384615384
 40
0.5384615384615384
 40
0.5384615384615384
 40
0.5384615384615384
 40
0.6153846153846154
 40
0.6153846153846154
 40
0.6153846153846154
 40
0.6153846153846154
 40
0.6923076923076923
 40
0.6923076923076923
 40
0.6923076923076923
 40
0.6923076923076923
 40
0.7692307692307693
 40
0.7692307692307693
 40
0.7692307692307693
 40
0.7692307692307693
 40
0.8461538461538461
 40
0.8461538461538461
 40
0.8461538461538461
 40
0.8461538461538461
 40
1.0
 40
1.0
 40
1.0
 40
1.0
 10
-102.9625
 20
32.503
 30
0.0
 10
-102.9625
 20
32.503
 30
0.0
 10
-102.9625
 20
34.2711
 30
0.0
 10
-102.9625
 20
34.2711
 30
0.0
 10
-102.9625
 20
34.2711
 30
0.0
 10
-102.9625
 20
34.2711
 30
0.0
 10
-101.6858
 20
34.2711
 30
0.0
 10
-101.6858
 20
34.2711
 30
0.0
 10
-101.6858
 20
34.2711
 30
0.0
 10
-101.6858
 20
34.2711
 30
0.0
 10
-101.6858
 20
34.0637
 30
0.0
 10
-101.6858
 20
34.0637
 30
0.0
 10
-101.6858
 20
34.0637
 30
0.0
 10
-101.6858
 20
34.0637
 30
0.0
 10
-102.7279
 20
34.0637
 30
0.0
 10
-102.7279
 20
34.0637
 30
0.0
 10
-102.7279
 20
34.0637
 30
0.0
 10
-102.7279
 20
34.0637
 30
0.0
 10
-102.7279
 20
33.5204
 30
0.0
 10
-102.7279
 20
33.5204
 30
0.0
 10
-102.7279
 20
33.5204
 30
0.0
 10
-102.7279
 20
33.5204
 30
0.0
 10
-101.7525
 20
33.5204
 30
0.0
 10
-101.7525
 20
33.5204
 30
0.0
 10
-101.7525
 20
33.5204
 30
0.0
 10
-101.7525
 20
33.5204
 30
0.0
 10
-101.7525
 20
33.313
 30
0.0
 10
-101.7525
 20
33.313
 30
0.0
 10
-101.7525
 20
33.313
 30
0.0
 10
-101.7525
 20
33.313
 30
0.0
 10
-102.7279
 20
33.313
 30
0.0
 10
-102.7279
 20
33.313
 30
0.0
 10
-102.7279
 20
33.313
 30
0.0
 10
-102.7279
 20
33.313
 30
0.0
 10
-102.7279
 20
32.7104
 30
0.0
 10
-102.7279
 20
32.7104
 30
0.0
 10
-102.7279
 20
32.7104
 30
0.0
 10
-102.7279
 20
32.7104
 30
0.0
 10
-101.6439
 20
32.7104
 30
0.0
 10
-101.6439
 20
32.7104
 30
0.0
 10
-101.6439
 20
32.7104
 30
0.0
 10
-101.6439
 20
32.7104
 30
0.0
 10
-101.6439
 20
32.503
 30
0.0
 10
-101.6439
 20
32.503
 30
0.0
 10
-101.6439
 20
32.503
 30
0.0
 10
-101.6439
 20
32.503
 30
0.0
 10
-102.9625
 20
32.503
 30
0.0
 10
-102.9625
 20
32.503
 30
0.0
  0
SPLINE
  5
9B
330
1F
100
AcDbEntity
  8
0
 62
     1
100
AcDbSpline
210
0.0
220
0.0
230
1.0
 70
    11
 71
     3
 72
   144
 73
   140
 74
     0
 42
0.000000001
 43
0.0000000001
 40
0.0
 40
0.0
 40
0.0
 40
0.0
 40
0.0277777777777778
 40
0.0277777777777778
 40
0.0277777777777778
 40
0.0277777777777778
 40
0.0555555555555556
 40
0.0555555555555556
 40
0.0555555555555556
 40
0.0555555555555556
 40
0.0833333333333333
 40
0.0833333333333333
 40
0.0833333333333333
 40
0.0833333333333333
 40
0.1111111111111111
 40
0.1111111111111111
 40
0.1111111111111111
 40
0.1111111111111111
 40
0.1388888888888889
 40
0.1388888888888889
 40
0.1388888888888889
 40
0.1388888888888889
 40
0.1666666666666667
 40
0.1666666666666667
 40
0.1666666666666667
 40
0.1666666666666667
 40
0.1944444444444444
 40
0.1944444444444444
 40
0.1944444444444444
 40
0.1944444444444444
 40
0.2222222222222222
 40
0.2222222222222222
 40
0.2222222222222222
 40
0.2222222222222222
 40
0.25
 40
0.25
 40
0.25
 40
0.25
 40
0.2777777777777778
 40
0.2777777777777778
 40
0.2777777777777778
 40
0.2777777777777778
 40
0.3055555555555556
 40
0.3055555555555556
 40
0.3055555555555556
 40
0.3055555555555556
 40
0.3333333333333333
 40
0.3333333333333333
 40
0.3333333333333333
 40
0.3333333333333333
 40
0.3611111111111111
 40
0.3611111111111111
 40
0.3611111111111111
 40
0.3611111111111111
 40
0.3888888888888889
 40
0.3888888888888889
 40
0.3888888888888889
 40
0.3888888888888889
 40
0.4166666666666667
 40
0.4166666666666667
 40
0.4166666666666667
 40
0.4166666666666667
 40
0.4444444444444444
 40
0.4444444444444444
 40
0.4444444444444444
 40
0.4444444444444444
 40
0.4722222222222222
 40
0.4722222222222222
 40
0.4722222222222222
 40
0.4722222222222222
 40
0.5
 40
0.5
 40
0.5
 40
0.5
 40
0.5277777777777778
 40
0.5277777777777778
 40
0.5277777777777778
 40
0.5277777777777778
 40
0.5555555555555556
 40
0.5555555555555556
 40
0.5555555555555556
 40
0.5555555555555556
 40
0.5833333333333334
 40
0.5833333333333334
 40
0.5833333333333334
 40
0.5833333333333334
 40
0.6111111111111112
 40
0.6111111111111112
 40
0.6111111111111112
 40
0.6111111111111112
 40
0.6388888888888888
 40
0.6388888888888888
 40
0.6388888888888888
 40
0.6388888888888888
 40
0.6666666666666666
 40
0.6666666666666666
 40
0.6666666666666666
 40
0.6666666666666666
 40
0.6944444444444444
 40
0.6944444444444444
 40
0.6944444444444444
 40
0.6944444444444444
 40
0.7222222222222222
 40
0.7222222222222222
 40
0.7222222222222222
 40
0.7222222222222222
 40
0.75
 40
0.75
 40
0.75
 40
0.75
 40
0.7777777777777778
 40
0.7777777777777778
 40
0.7777777777777778
 40
0.7777777777777778
 40
0.8055555555555556
 40
0.8055555555555556
 40
0.8055555555555556
 40
0.8055555555555556
 40
0.8333333333333334
 40
0.8333333333333334
 40
0.8333333333333334
 40
0.8333333333333334
 40
0.8611111111111112
 40
0.8611111111111112
 40
0.8611111111111112
 40
0.8611111111111112
 40
0.8888888888888888
 40
0.8888888888888888
 40
0.8888888888888888
 40
0.8888888888888888
 40
0.9166666666666666
 40
0.9166666666666666
 40
0.9166666666666666
 40
0.9166666666666666
 40
0.9444444444444444
 40
0.9444444444444444
 40
0.9444444444444444
 40
0.9444444444444444
 40
1.0
 40
1.0
 40
1.0
 40
1.0
 10
-100.7108
 20
33.071
 30
0.0
 10
-100.7108
 20
33.071
 30
0.0
 10
-100.491
 20
33.0907
 30
0.0
 10
-100.491
 20
33.0907
 30
0.0
 10
-100.491
 20
33.0907
 30
0.0
 10
-100.4807
 20
33.0018
 30
0.0
 10
-100.4565
 20
32.929
 30
0.0
 10
-100.4182
 20
32.8718
 30
0.0
 10
-100.4182
 20
32.8718
 30
0.0
 10
-100.3799
 20
32.815
 30
0.0
 10
-100.3206
 20
32.7689
 30
0.0
 10
-100.2404
 20
32.7335
 30
0.0
 10
-100.2404
 20
32.7335
 30
0.0
 10
-100.1601
 20
32.6985
 30
0.0
 10
-100.0696
 20
32.6808
 30
0.0
 10
-99.9692
 20
32.6808
 30
0.0
 10
-99.9692
 20
32.6808
 30
0.0
 10
-99.8799
 20
32.6808
 30
0.0
 10
-99.8012
 20
32.694
 30
0.0
 10
-99.7329
 20
32.7207
 30
0.0
 10
-99.7329
 20
32.7207
 30
0.0
 10
-99.6646
 20
32.7475
 30
0.0
 10
-99.614
 20
32.7841
 30
0.0
 10
-99.5806
 20
32.8306
 30
0.0
 10
-99.5806
 20
32.8306
 30
0.0
 10
-99.5473
 20
32.8771
 30
0.0
 10
-99.5304
 20
32.9277
 30
0.0
 10
-99.5304
 20
32.9821
 30
0.0
 10
-99.5304
 20
32.9821
 30
0.0
 10
-99.5304
 20
33.0372
 30
0.0
 10
-99.5465
 20
33.0854
 30
0.0
 10
-99.5786
 20
33.1269
 30
0.0
 10
-99.5786
 20
33.1269
 30
0.0
 10
-99.6107
 20
33.1681
 30
0.0
 10
-99.6638
 20
33.2027
 30
0.0
 10
-99.7379
 20
33.2311
 30
0.0
 10
-99.7379
 20
33.2311
 30
0.0
 10
-99.7852
 20
33.2492
 30
0.0
 10
-99.8901
 20
33.278
 30
0.0
 10
-100.0527
 20
33.3171
 30
0.0
 10
-100.0527
 20
33.3171
 30
0.0
 10
-100.2153
 20
33.3562
 30
0.0
 10
-100.3289
 20
33.3928
 30
0.0
 10
-100.3939
 20
33.4274
 30
0.0
 10
-100.3939
 20
33.4274
 30
0.0
 10
-100.4783
 20
33.4718
 30
0.0
 10
-100.5408
 20
33.527
 30
0.0
 10
-100.582
 20
33.5924
 30
0.0
 10
-100.582
 20
33.5924
 30
0.0
 10
-100.6236
 20
33.6579
 30
0.0
 10
-100.6441
 20
33.7315
 30
0.0
 10
-100.6441
 20
33.8126
 30
0.0
 10
-100.6441
 20
33.8126
 30
0.0
 10
-100.6441
 20
33.9023
 30
0.0
 10
-100.6186
 20
33.9859
 30
0.0
 10
-100.568
 20
34.0632
 30
0.0
 10
-100.568
 20
34.0632
 30
0.0
 10
-100.5174
 20
34.141
 30
0.0
 10
-100.4437
 20
34.1999
 30
0.0
 10
-100.3462
 20
34.2402
 30
0.0
 10
-100.3462
 20
34.2402
 30
0.0
 10
-100.249
 20
34.2806
 30
0.0
 10
-100.1408
 20
34.3007
 30
0.0
 10
-100.0218
 20
34.3007
 30
0.0
 10
-100.0218
 20
34.3007
 30
0.0
 10
-99.891
 20
34.3007
 30
0.0
 10
-99.7753
 20
34.2797
 30
0.0
 10
-99.6753
 20
34.2373
 30
0.0
 10
-99.6753
 20
34.2373
 30
0.0
 10
-99.5753
 20
34.1954
 30
0.0
 10
-99.4983
 20
34.1332
 30
0.0
 10
-99.4444
 20
34.0509
 30
0.0
 10
-99.4444
 20
34.0509
 30
0.0
 10
-99.3905
 20
33.969
 30
0.0
 10
-99.3617
 20
33.876
 30
0.0
 10
-99.3576
 20
33.7723
 30
0.0
 10
-99.3576
 20
33.7723
 30
0.0
 10
-99.3576
 20
33.7723
 30
0.0
 10
-99.5823
 20
33.755
 30
0.0
 10
-99.5823
 20
33.755
 30
0.0
 10
-99.5823
 20
33.755
 30
0.0
 10
-99.5942
 20
33.8665
 30
0.0
 10
-99.635
 20
33.9509
 30
0.0
 10
-99.7045
 20
34.0077
 30
0.0
 10
-99.7045
 20
34.0077
 30
0.0
 10
-99.7741
 20
34.0649
 30
0.0
 10
-99.877
 20
34.0933
 30
0.0
 10
-100.0128
 20
34.0933
 30
0.0
 10
-100.0128
 20
34.0933
 30
0.0
 10
-100.1544
 20
34.0933
 30
0.0
 10
-100.2577
 20
34.0674
 30
0.0
 10
-100.3223
 20
34.0155
 30
0.0
 10
-100.3223
 20
34.0155
 30
0.0
 10
-100.3869
 20
33.9637
 30
0.0
 10
-100.4194
 20
33.9011
 30
0.0
 10
-100.4194
 20
33.8278
 30
0.0
 10
-100.4194
 20
33.8278
 30
0.0
 10
-100.4194
 20
33.7645
 30
0.0
 10
-100.3964
 20
33.7122
 30
0.0
 10
-100.3507
 20
33.671
 30
0.0
 10
-100.3507
 20
33.671
 30
0.0
 10
-100.3054
 20
33.6303
 30
0.0
 10
-100.1881
 20
33.5879
 30
0.0
 10
-99.998
 20
33.5451
 30
0.0
 10
-99.998
 20
33.5451
 30
0.0
 10
-99.8078
 20
33.5019
 30
0.0
 10
-99.6774
 20
33.4644
 30
0.0
 10
-99.6066
 20
33.4323
 30
0.0
 10
-99.6066
 20
33.4323
 30
0.0
 10
-99.5041
 20
33.385
 30
0.0
 10
-99.428
 20
33.3253
 30
0.0
 10
-99.379
 20
33.2525
 30
0.0
 10
-99.379
 20
33.2525
 30
0.0
 10
-99.33
 20
33.18
 30
0.0
 10
-99.3057
 20
33.0965
 30
0.0
 10
-99.3057
 20
33.0018
 30
0.0
 10
-99.3057
 20
33.0018
 30
0.0
 10
-99.3057
 20
32.9076
 30
0.0
 10
-99.3325
 20
32.8195
 30
0.0
 10
-99.3864
 20
32.7364
 30
0.0
 10
-99.3864
 20
32.7364
 30
0.0
 10
-99.4403
 20
32.6532
 30
0.0
 10
-99.5173
 20
32.5886
 30
0.0
 10
-99.6181
 20
32.5425
 30
0.0
 10
-99.6181
 20
32.5425
 30
0.0
 10
-99.7189
 20
32.4964
 30
0.0
 10
-99.8321
 20
32.4734
 30
0.0
 10
-99.9585
 20
32.4734
 30
0.0
 10
-99.9585
 20
32.4734
 30
0.0
 10
-100.1182
 20
32.4734
 30
0.0
 10
-100.2519
 20
32.4968
 30
0.0
 10
-100.3597
 20
32.5433
 30
0.0
 10
-100.3597
 20
32.5433
 30
0.0
 10
-100.468
 20
32.5898
 30
0.0
 10
-100.5524
 20
32.6598
 30
0.0
 10
-100.6137
 20
32.7536
 30
0.0
 10
-100.6137
 20
32.7536
 30
0.0
 10
-100.6754
 20
32.8471
 30
0.0
 10
-100.7075
 20
32.9528
 30
0.0
 10
-100.7108
 20
33.071
 30
0.0
  0
SPLINE
  5
9C
330
1F
100
AcDbEntity
  8
0
 62
     1
100
AcDbSpline
210
0.0
220
0.0
230
1.0
 70
    11
 71
     3
 72
    80
 73
    76
 74
     0
 42
0.000000001
 43
0.0000000001
 40
0.0
 40
0.0
 40
0.0
 40
0.0
 40
0.05
 40
0.05
 40
0.05
 40
0.05
 40
0.1
 40
0.1
 40
0.1
 40
0.1
 40
0.15
 40
0.15
 40
0.15
 40
0.15
 40
0.2
 40
0.2
 40
0.2
 40
0.2
 40
0.25
 40
0.25
 40
0.25
 40
0.25
 40
0.3
 40
0.3
 40
0.3
 40
0.3
 40
0.35
 40
0.35
 40
0.35
 40
0.35
 40
0.4
 40
0.4
 40
0.4
 40
0.4
 40
0.45
 40
0.45
 40
0.45
 40
0.45
 40
0.5
 40
0.5
 40
0.5
 40
0.5
 40
0.55
 40
0.55
 40
0.55
 40
0.55
 40
0.6
 40
0.6
 40
0.6
 40
0.6
 40
0.65
 40
0.65
 40
0.65
 40
0.65
 40
0.7
 40
0.7
 40
0.7
 40
0.7
 40
0.75
 40
0.75
 40
0.75
 40
0.75
 40
0.8
 40
0.8
 40
0.8
 40
0.8
 40
0.85
 40
0.85
 40
0.85
 40
0.85
 40
0.9
 40
0.9
 40
0.9
 40
0.9
 40
1.0
 40
1.0
 40
1.0
 40
1.0
 10
-98.1772
 20
32.503
 30
0.0
 10
-98.1772
 20
32.503
 30
0.0
 10
-98.1772
 20
32.6936
 30
0.0
 10
-98.1772
 20
32.6936
 30
0.0
 10
-98.1772
 20
32.6936
 30
0.0
 10
-98.2768
 20
32.5483
 30
0.0
 10
-98.4118
 20
32.4758
 30
0.0
 10
-98.5826
 20
32.4758
 30
0.0
 10
-98.5826
 20
32.4758
 30
0.0
 10
-98.6579
 20
32.4758
 30
0.0
 10
-98.7283
 20
32.4902
 30
0.0
 10
-98.7937
 20
32.5191
 30
0.0
 10
-98.7937
 20
32.5191
 30
0.0
 10
-98.8592
 20
32.5483
 30
0.0
 10
-98.9077
 20
32.5845
 30
0.0
 10
-98.9394
 20
32.6281
 30
0.0
 10
-98.9394
 20
32.6281
 30
0.0
 10
-98.9711
 20
32.6722
 30
0.0
 10
-98.9933
 20
32.7257
 30
0.0
 10
-99.0061
 20
32.789
 30
0.0
 10
-99.0061
 20
32.789
 30
0.0
 10
-99.0147
 20
32.8318
 30
0.0
 10
-99.0193
 20
32.8993
 30
0.0
 10
-99.0193
 20
32.9915
 30
0.0
 10
-99.0193
 20
32.9915
 30
0.0
 10
-99.0193
 20
32.9915
 30
0.0
 10
-99.0193
 20
33.7846
 30
0.0
 10
-99.0193
 20
33.7846
 30
0.0
 10
-99.0193
 20
33.7846
 30
0.0
 10
-99.0193
 20
33.7846
 30
0.0
 10
-98.802
 20
33.7846
 30
0.0
 10
-98.802
 20
33.7846
 30
0.0
 10
-98.802
 20
33.7846
 30
0.0
 10
-98.802
 20
33.7846
 30
0.0
 10
-98.802
 20
33.0755
 30
0.0
 10
-98.802
 20
33.0755
 30
0.0
 10
-98.802
 20
33.0755
 30
0.0
 10
-98.802
 20
32.9623
 30
0.0
 10
-98.7974
 20
32.8858
 30
0.0
 10
-98.7888
 20
32.8467
 30
0.0
 10
-98.7888
 20
32.8467
 30
0.0
 10
-98.7752
 20
32.7895
 30
0.0
 10
-98.7464
 20
32.745
 30
0.0
 10
-98.7019
 20
32.7125
 30
0.0
 10
-98.7019
 20
32.7125
 30
0.0
 10
-98.6579
 20
32.68
 30
0.0
 10
-98.6036
 20
32.6635
 30
0.0
 10
-98.5385
 20
32.6635
 30
0.0
 10
-98.5385
 20
32.6635
 30
0.0
 10
-98.4735
 20
32.6635
 30
0.0
 10
-98.4126
 20
32.68
 30
0.0
 10
-98.3558
 20
32.7133
 30
0.0
 10
-98.3558
 20
32.7133
 30
0.0
 10
-98.299
 20
32.7466
 30
0.0
 10
-98.2587
 20
32.7923
 30
0.0
 10
-98.2348
 20
32.8495
 30
0.0
 10
-98.2348
 20
32.8495
 30
0.0
 10
-98.2114
 20
32.9067
 30
0.0
 10
-98.1994
 20
32.9903
 30
0.0
 10
-98.1994
 20
33.0994
 30
0.0
 10
-98.1994
 20
33.0994
 30
0.0
 10
-98.1994
 20
33.0994
 30
0.0
 10
-98.1994
 20
33.7846
 30
0.0
 10
-98.1994
 20
33.7846
 30
0.0
 10
-98.1994
 20
33.7846
 30
0.0
 10
-98.1994
 20
33.7846
 30
0.0
 10
-97.9821
 20
33.7846
 30
0.0
 10
-97.9821
 20
33.7846
 30
0.0
 10
-97.9821
 20
33.7846
 30
0.0
 10
-97.9821
 20
33.7846
 30
0.0
 10
-97.9821
 20
32.503
 30
0.0
 10
-97.9821
 20
32.503
 30
0.0
 10
-97.9821
 20
32.503
 30
0.0
 10
-97.9821
 20
32.503
 30
0.0
 10
-98.1772
 20
32.503
 30
0.0
 10
-98.1772
 20
32.503
 30
0.0
  0
SPLINE
  5
9D
330
1F
100
AcDbEntity
  8
0
 62
     1
100
AcDbSpline
210
0.0
220
0.0
230
1.0
 70
    11
 71
     3
 72
    60
 73
    56
 74
     0
 42
0.000000001
 43
0.0000000001
 40
0.0
 40
0.0
 40
0.0
 40
0.0
 40
0.0666666666666667
 40
0.0666666666666667
 40
0.0666666666666667
 40
0.0666666666666667
 40
0.1333333333333333
 40
0.1333333333333333
 40
0.1333333333333333
 40
0.1333333333333333
 40
0.2
 40
0.2
 40
0.2
 40
0.2
 40
0.2666666666666667
 40
0.2666666666666667
 40
0.2666666666666667
 40
0.2666666666666667
 40
0.3333333333333333
 40
0.3333333333333333
 40
0.3333333333333333
 40
0.3333333333333333
 40
0.4
 40
0.4
 40
0.4
 40
0.4
 40
0.4666666666666667
 40
0.4666666666666667
 40
0.4666666666666667
 40
0.4666666666666667
 40
0.5333333333333333
 40
0.5333333333333333
 40
0.5333333333333333
 40
0.5333333333333333
 40
0.6
 40
0.6
 40
0.6
 40
0.6
 40
0.6666666666666666
 40
0.6666666666666666
 40
0.6666666666666666
 40
0.6666666666666666
 40
0.7333333333333333
 40
0.7333333333333333
 40
0.7333333333333333
 40
0.7333333333333333
 40
0.8
 40
0.8
 40
0.8
 40
0.8
 40
0.8666666666666667
 40
0.8666666666666667
 40
0.8666666666666667
 40
0.8666666666666667
 40
1.0
 40
1.0
 40
1.0
 40
1.0
 10
-96.8137
 20
32.503
 30
0.0
 10
-96.8137
 20
32.503
 30
0.0
 10
-96.8137
 20
32.6656
 30
0.0
 10
-96.8137
 20
32.6656
 30
0.0
 10
-96.8137
 20
32.6656
 30
0.0
 10
-96.8947
 20
32.5392
 30
0.0
 10
-97.0141
 20
32.4758
 30
0.0
 10
-97.1717
 20
32.4758
 30
0.0
 10
-97.1717
 20
32.4758
 30
0.0
 10
-97.2738
 20
32.4758
 30
0.0
 10
-97.3676
 20
32.5038
 30
0.0
 10
-97.4528
 20
32.5602
 30
0.0
 10
-97.4528
 20
32.5602
 30
0.0
 10
-97.5384
 20
32.6162
 30
0.0
 10
-97.6047
 20
32.6948
 30
0.0
 10
-97.652
 20
32.7952
 30
0.0
 10
-97.652
 20
32.7952
 30
0.0
 10
-97.699
 20
32.896
 30
0.0
 10
-97.7224
 20
33.0117
 30
0.0
 10
-97.7224
 20
33.1426
 30
0.0
 10
-97.7224
 20
33.1426
 30
0.0
 10
-97.7224
 20
33.2702
 30
0.0
 10
-97.701
 20
33.3858
 30
0.0
 10
-97.6586
 20
33.4899
 30
0.0
 10
-97.6586
 20
33.4899
 30
0.0
 10
-97.6158
 20
33.5937
 30
0.0
 10
-97.552
 20
33.6735
 30
0.0
 10
-97.4668
 20
33.7286
 30
0.0
 10
-97.4668
 20
33.7286
 30
0.0
 10
-97.382
 20
33.7842
 30
0.0
 10
-97.2866
 20
33.8118
 30
0.0
 10
-97.1816
 20
33.8118
 30
0.0
 10
-97.1816
 20
33.8118
 30
0.0
 10
-97.1042
 20
33.8118
 30
0.0
 10
-97.0355
 20
33.7953
 30
0.0
 10
-96.9754
 20
33.7628
 30
0.0
 10
-96.9754
 20
33.7628
 30
0.0
 10
-96.9153
 20
33.7303
 30
0.0
 10
-96.8664
 20
33.6875
 30
0.0
 10
-96.8285
 20
33.6352
 30
0.0
 10
-96.8285
 20
33.6352
 30
0.0
 10
-96.8285
 20
33.6352
 30
0.0
 10
-96.8285
 20
34.2711
 30
0.0
 10
-96.8285
 20
34.2711
 30
0.0
 10
-96.8285
 20
34.2711
 30
0.0
 10
-96.8285
 20
34.2711
 30
0.0
 10
-96.6112
 20
34.2711
 30
0.0
 10
-96.6112
 20
34.2711
 30
0.0
 10
-96.6112
 20
34.2711
 30
0.0
 10
-96.6112
 20
34.2711
 30
0.0
 10
-96.6112
 20
32.503
 30
0.0
 10
-96.6112
 20
32.503
 30
0.0
 10
-96.6112
 20
32.503
 30
0.0
 10
-96.6112
 20
32.503
 30
0.0
 10
-96.8137
 20
32.503
 30
0.0
 10
-96.8137
 20
32.503
 30
0.0
  0
SPLINE
  5
9E
330
1F
100
AcDbEntity
  8
0
 62
     1
100
AcDbSpline
210
0.0
220
0.0
230
1.0
 70
    11
 71
     3
 72
    36
 73
    32
 74
     0
 42
0.000000001
 43
0.0000000001
 40
0.0
 40
0.0
 40
0.0
 40
0.0
 40
0.1111111111111111
 40
0.1111111111111111
 40
0.1111111111111111
 40
0.1111111111111111
 40
0.2222222222222222
 40
0.2222222222222222
 40
0.2222222222222222
 40
0.2222222222222222
 40
0.3333333333333333
 40
0.3333333333333333
 40
0.3333333333333333
 40
0.3333333333333333
 40
0.4444444444444444
 40
0.4444444444444444
 40
0.4444444444444444
 40
0.4444444444444444
 40
0.5555555555555556
 40
0.5555555555555556
 40
0.5555555555555556
 40
0.5555555555555556
 40
0.6666666666666666
 40
0.6666666666666666
 40
0.6666666666666666
 40
0.6666666666666666
 40
0.7777777777777778
 40
0.7777777777777778
 40
0.7777777777777778
 40
0.7777777777777778
 40
1.0
 40
1.0
 40
1.0
 40
1.0
 10
-97.5002
 20
33.1422
 30
0.0
 10
-97.5002
 20
32.9784
 30
0.0
 10
-97.4656
 20
32.8561
 30
0.0
 10
-97.396
 20
32.775
 30
0.0
 10
-97.396
 20
32.775
 30
0.0
 10
-97.3269
 20
32.694
 30
0.0
 10
-97.245
 20
32.6536
 30
0.0
 10
-97.1507
 20
32.6536
 30
0.0
 10
-97.1507
 20
32.6536
 30
0.0
 10
-97.0557
 20
32.6536
 30
0.0
 10
-96.975
 20
32.6923
 30
0.0
 10
-96.9083
 20
32.7697
 30
0.0
 10
-96.9083
 20
32.7697
 30
0.0
 10
-96.8421
 20
32.8471
 30
0.0
 10
-96.8087
 20
32.9652
 30
0.0
 10
-96.8087
 20
33.1241
 30
0.0
 10
-96.8087
 20
33.1241
 30
0.0
 10
-96.8087
 20
33.2986
 30
0.0
 10
-96.8425
 20
33.427
 30
0.0
 10
-96.9104
 20
33.5089
 30
0.0
 10
-96.9104
 20
33.5089
 30
0.0
 10
-96.9779
 20
33.5908
 30
0.0
 10
-97.0614
 20
33.6315
 30
0.0
 10
-97.1606
 20
33.6315
 30
0.0
 10
-97.1606
 20
33.6315
 30
0.0
 10
-97.2573
 20
33.6315
 30
0.0
 10
-97.338
 20
33.5924
 30
0.0
 10
-97.403
 20
33.5138
 30
0.0
 10
-97.403
 20
33.5138
 30
0.0
 10
-97.4677
 20
33.4352
 30
0.0
 10
-97.5002
 20
33.3113
 30
0.0
 10
-97.5002
 20
33.1422
 30
0.0
  0
SPLINE
  5
9F
330
1F
100
AcDbEntity
  8
0
 62
     1
100
AcDbSpline
210
0.0
220
0.0
230
1.0
 70
    11
 71
     3
 72
    56
 73
    52
 74
     0
 42
0.000000001
 43
0.0000000001
 40
0.0
 40
0.0
 40
0.0
 40
0.0
 40
0.0714285714285714
 40
0.0714285714285714
 40
0.0714285714285714
 40
0.0714285714285714
 40
0.1428571428571428
 40
0.1428571428571428
 40
0.1428571428571428
 40
0.1428571428571428
 40
0.2142857142857143
 40
0.2142857142857143
 40
0.2142857142857143
 40
0.2142857142857143
 40
0.2857142857142857
 40
0.2857142857142857
 40
0.2857142857142857
 40
0.2857142857142857
 40
0.3571428571428572
 40
0.3571428571428572
 40
0.3571428571428572
 40
0.3571428571428572
 40
0.4285714285714285
 40
0.4285714285714285
 40
0.4285714285714285
 40
0.4285714285714285
 40
0.5
 40
0.5
 40
0.5
 40
0.5
 40
0.5714285714285714
 40
0.5714285714285714
 40
0.5714285714285714
 40
0.5714285714285714
 40
0.6428571428571429
 40
0.6428571428571429
 40
0.6428571428571429
 40
0.6428571428571429
 40
0.7142857142857143
 40
0.7142857142857143
 40
0.7142857142857143
 40
0.7142857142857143
 40
0.7857142857142857
 40
0.7857142857142857
 40
0.7857142857142857
 40
0.7857142857142857
 40
0.8571428571428571
 40
0.8571428571428571
 40
0.8571428571428571
 40
0.8571428571428571
 40
1.0
 40
1.0
 40
1.0
 40
1.0
 10
-96.27
 20
32.503
 30
0.0
 10
-96.27
 20
32.503
 30
0.0
 10
-96.27
 20
33.7846
 30
0.0
 10
-96.27
 20
33.7846
 30
0.0
 10
-96.27
 20
33.7846
 30
0.0
 10
-96.27
 20
33.7846
 30
0.0
 10
-96.0749
 20
33.7846
 30
0.0
 10
-96.0749
 20
33.7846
 30
0.0
 10
-96.0749
 20
33.7846
 30
0.0
 10
-96.0749
 20
33.7846
 30
0.0
 10
-96.0749
 20
33.5883
 30
0.0
 10
-96.0749
 20
33.5883
 30
0.0
 10
-96.0749
 20
33.5883
 30
0.0
 10
-96.0251
 20
33.6793
 30
0.0
 10
-95.979
 20
33.7393
 30
0.0
 10
-95.9366
 20
33.7682
 30
0.0
 10
-95.9366
 20
33.7682
 30
0.0
 10
-95.8942
 20
33.7974
 30
0.0
 10
-95.8477
 20
33.8118
 30
0.0
 10
-95.7971
 20
33.8118
 30
0.0
 10
-95.7971
 20
33.8118
 30
0.0
 10
-95.7238
 20
33.8118
 30
0.0
 10
-95.6493
 20
33.7887
 30
0.0
 10
-95.5736
 20
33.7431
 30
0.0
 10
-95.5736
 20
33.7431
 30
0.0
 10
-95.5736
 20
33.7431
 30
0.0
 10
-95.651
 20
33.5426
 30
0.0
 10
-95.651
 20
33.5426
 30
0.0
 10
-95.651
 20
33.5426
 30
0.0
 10
-95.7037
 20
33.5723
 30
0.0
 10
-95.7564
 20
33.5871
 30
0.0
 10
-95.809
 20
33.5871
 30
0.0
 10
-95.809
 20
33.5871
 30
0.0
 10
-95.8564
 20
33.5871
 30
0.0
 10
-95.8988
 20
33.5727
 30
0.0
 10
-95.9362
 20
33.5443
 30
0.0
 10
-95.9362
 20
33.5443
 30
0.0
 10
-95.9737
 20
33.5159
 30
0.0
 10
-96.0004
 20
33.4764
 30
0.0
 10
-96.0165
 20
33.4257
 30
0.0
 10
-96.0165
 20
33.4257
 30
0.0
 10
-96.0407
 20
33.3488
 30
0.0
 10
-96.0527
 20
33.2644
 30
0.0
 10
-96.0527
 20
33.1726
 30
0.0
 10
-96.0527
 20
33.1726
 30
0.0
 10
-96.0527
 20
33.1726
 30
0.0
 10
-96.0527
 20
32.503
 30
0.0
 10
-96.0527
 20
32.503
 30
0.0
 10
-96.0527
 20
32.503
 30
0.0
 10
-96.0527
 20
32.503
 30
0.0
 10
-96.27
 20
32.503
 30
0.0
 10
-96.27
 20
32.503
 30
0.0
  0
SPLINE
  5
A0
330
1F
100
AcDbEntity
  8
0
 62
     1
100
AcDbSpline
210
0.0
220
0.0
230
1.0
 70
    11
 71
     3
 72
    20
 73
    16
 74
     0
 42
0.000000001
 43
0.0000000001
 40
0.0
 40
0.0
 40
0.0
 40
0.0
 40
0.2
 40
0.2
 40
0.2
 40
0.2
 40
0.4
 40
0.4
 40
0.4
 40
0.4
 40
0.6
 40
0.6
 40
0.6
 40
0.6
 40
1.0
 40
1.0
 40
1.0
 40
1.0
 10
-95.4452
 20
34.0242
 30
0.0
 10
-95.4452
 20
34.0242
 30
0.0
 10
-95.4452
 20
34.2711
 30
0.0
 10
-95.4452
 20
34.2711
 30
0.0
 10
-95.4452
 20
34.2711
 30
0.0
 10
-95.4452
 20
34.2711
 30
0.0
 10
-95.2279
 20
34.2711
 30
0.0
 10
-95.2279
 20
34.2711
 30
0.0
 10
-95.2279
 20
34.2711
 30
0.0
 10
-95.2279
 20
34.2711
 30
0.0
 10
-95.2279
 20
34.0242
 30
0.0
 10
-95.2279
 20
34.0242
 30
0.0
 10
-95.2279
 20
34.0242
 30
0.0
 10
-95.2279
 20
34.0242
 30
0.0
 10
-95.4452
 20
34.0242
 30
0.0
 10
-95.4452
 20
34.0242
 30
0.0
  0
SPLINE
  5
A1
330
1F
100
AcDbEntity
  8
0
 62
     1
100
AcDbSpline
210
0.0
220
0.0
230
1.0
 70
    11
 71
     3
 72
    20
 73
    16
 74
     0
 42
0.000000001
 43
0.0000000001
 40
0.0
 40
0.0
 40
0.0
 40
0.0
 40
0.2
 40
0.2
 40
0.2
 40
0.2
 40
0.4
 40
0.4
 40
0.4
 40
0.4
 40
0.6
 40
0.6
 40
0.6
 40
0.6
 40
1.0
 40
1.0
 40
1.0
 40
1.0
 10
-95.4452
 20
32.503
 30
0.0
 10
-95.4452
 20
32.503
 30
0.0
 10
-95.4452
 20
33.7846
 30
0.0
 10
-95.4452
 20
33.7846
 30
0.0
 10
-95.4452
 20
33.7846
 30
0.0
 10
-95.4452
 20
33.7846
 30
0.0
 10
-95.2279
 20
33.7846
 30
0.0
 10
-95.2279
 20
33.7846
 30
0.0
 10
-95.2279
 20
33.7846
 30
0.0
 10
-95.2279
 20
33.7846
 30
0.0
 10
-95.2279
 20
32.503
 30
0.0
 10
-95.2279
 20
32.503
 30
0.0
 10
-95.2279
 20
32.503
 30
0.0
 10
-95.2279
 20
32.503
 30
0.0
 10
-95.4452
 20
32.503
 30
0.0
 10
-95.4452
 20
32.503
 30
0.0
  0
SPLINE
  5
A2
330
1F
100
AcDbEntity
  8
0
 62
     1
100
AcDbSpline
210
0.0
220
0.0
230
1.0
 70
    11
 71
     3
 72
   112
 73
   108
 74
     0
 42
0.000000001
 43
0.0000000001
 40
0.0
 40
0.0
 40
0.0
 40
0.0
 40
0.0357142857142857
 40
0.0357142857142857
 40
0.0357142857142857
 40
0.0357142857142857
 40
0.0714285714285714
 40
0.0714285714285714
 40
0.0714285714285714
 40
0.0714285714285714
 40
0.1071428571428571
 40
0.1071428571428571
 40
0.1071428571428571
 40
0.1071428571428571
 40
0.1428571428571428
 40
0.1428571428571428
 40
0.1428571428571428
 40
0.1428571428571428
 40
0.1785714285714286
 40
0.1785714285714286
 40
0.1785714285714286
 40
0.1785714285714286
 40
0.2142857142857143
 40
0.2142857142857143
 40
0.2142857142857143
 40
0.2142857142857143
 40
0.25
 40
0.25
 40
0.25
 40
0.25
 40
0.2857142857142857
 40
0.2857142857142857
 40
0.2857142857142857
 40
0.2857142857142857
 40
0.3214285714285715
 40
0.3214285714285715
 40
0.3214285714285715
 40
0.3214285714285715
 40
0.3571428571428572
 40
0.3571428571428572
 40
0.3571428571428572
 40
0.3571428571428572
 40
0.3928571428571428
 40
0.3928571428571428
 40
0.3928571428571428
 40
0.3928571428571428
 40
0.4285714285714285
 40
0.4285714285714285
 40
0.4285714285714285
 40
0.4285714285714285
 40
0.4642857142857143
 40
0.4642857142857143
 40
0.4642857142857143
 40
0.4642857142857143
 40
0.5
 40
0.5
 40
0.5
 40
0.5
 40
0.5357142857142857
 40
0.5357142857142857
 40
0.5357142857142857
 40
0.5357142857142857
 40
0.5714285714285714
 40
0.5714285714285714
 40
0.5714285714285714
 40
0.5714285714285714
 40
0.6071428571428571
 40
0.6071428571428571
 40
0.6071428571428571
 40
0.6071428571428571
 40
0.6428571428571429
 40
0.6428571428571429
 40
0.6428571428571429
 40
0.6428571428571429
 40
0.6785714285714286
 40
0.6785714285714286
 40
0.6785714285714286
 40
0.6785714285714286
 40
0.7142857142857143
 40
0.7142857142857143
 40
0.7142857142857143
 40
0.7142857142857143
 40
0.75
 40
0.75
 40
0.75
 40
0.75
 40
0.7857142857142857
 40
0.7857142857142857
 40
0.7857142857142857
 40
0.7857142857142857
 40
0.8214285714285714
 40
0.8214285714285714
 40
0.8214285714285714
 40
0.8214285714285714
 40
0.8571428571428571
 40
0.8571428571428571
 40
0.8571428571428571
 40
0.8571428571428571
 40
0.8928571428571429
 40
0.8928571428571429
 40
0.8928571428571429
 40
0.8928571428571429
 40
0.9285714285714286
 40
0.9285714285714286
 40
0.9285714285714286
 40
0.9285714285714286
 40
1.0
 40
1.0
 40
1.0
 40
1.0
 10
-94.0595
 20
32.6635
 30
0.0
 10
-94.1402
 20
32.5948
 30
0.0
 10
-94.2179
 20
32.5466
 30
0.0
 10
-94.2924
 20
32.5182
 30
0.0
 10
-94.2924
 20
32.5182
 30
0.0
 10
-94.3669
 20
32.4898
 30
0.0
 10
-94.4468
 20
32.4758
 30
0.0
 10
-94.5324
 20
32.4758
 30
0.0
 10
-94.5324
 20
32.4758
 30
0.0
 10
-94.6731
 20
32.4758
 30
0.0
 10
-94.7814
 20
32.51
 30
0.0
 10
-94.8571
 20
32.5787
 30
0.0
 10
-94.8571
 20
32.5787
 30
0.0
 10
-94.9328
 20
32.647
 30
0.0
 10
-94.9707
 20
32.7347
 30
0.0
 10
-94.9707
 20
32.8413
 30
0.0
 10
-94.9707
 20
32.8413
 30
0.0
 10
-94.9707
 20
32.9039
 30
0.0
 10
-94.9563
 20
32.9611
 30
0.0
 10
-94.9279
 20
33.0129
 30
0.0
 10
-94.9279
 20
33.0129
 30
0.0
 10
-94.8991
 20
33.0648
 30
0.0
 10
-94.8616
 20
33.1059
 30
0.0
 10
-94.8155
 20
33.1372
 30
0.0
 10
-94.8155
 20
33.1372
 30
0.0
 10
-94.769
 20
33.1685
 30
0.0
 10
-94.7172
 20
33.1924
 30
0.0
 10
-94.6591
 20
33.2084
 30
0.0
 10
-94.6591
 20
33.2084
 30
0.0
 10
-94.6163
 20
33.2195
 30
0.0
 10
-94.5517
 20
33.2302
 30
0.0
 10
-94.4657
 20
33.2409
 30
0.0
 10
-94.4657
 20
33.2409
 30
0.0
 10
-94.2904
 20
33.2615
 30
0.0
 10
-94.1607
 20
33.2866
 30
0.0
 10
-94.078
 20
33.3154
 30
0.0
 10
-94.078
 20
33.3154
 30
0.0
 10
-94.0772
 20
33.3451
 30
0.0
 10
-94.0768
 20
33.364
 30
0.0
 10
-94.0768
 20
33.3718
 30
0.0
 10
-94.0768
 20
33.3718
 30
0.0
 10
-94.0768
 20
33.4599
 30
0.0
 10
-94.0974
 20
33.522
 30
0.0
 10
-94.1385
 20
33.5583
 30
0.0
 10
-94.1385
 20
33.5583
 30
0.0
 10
-94.1941
 20
33.6072
 30
0.0
 10
-94.2768
 20
33.6315
 30
0.0
 10
-94.3863
 20
33.6315
 30
0.0
 10
-94.3863
 20
33.6315
 30
0.0
 10
-94.4888
 20
33.6315
 30
0.0
 10
-94.5645
 20
33.6134
 30
0.0
 10
-94.6131
 20
33.5776
 30
0.0
 10
-94.6131
 20
33.5776
 30
0.0
 10
-94.662
 20
33.5418
 30
0.0
 10
-94.6978
 20
33.4784
 30
0.0
 10
-94.7213
 20
33.387
 30
0.0
 10
-94.7213
 20
33.387
 30
0.0
 10
-94.7213
 20
33.387
 30
0.0
 10
-94.9337
 20
33.4167
 30
0.0
 10
-94.9337
 20
33.4167
 30
0.0
 10
-94.9337
 20
33.4167
 30
0.0
 10
-94.9143
 20
33.5076
 30
0.0
 10
-94.8826
 20
33.5813
 30
0.0
 10
-94.8382
 20
33.6373
 30
0.0
 10
-94.8382
 20
33.6373
 30
0.0
 10
-94.7937
 20
33.6933
 30
0.0
 10
-94.7295
 20
33.7361
 30
0.0
 10
-94.6456
 20
33.7665
 30
0.0
 10
-94.6456
 20
33.7665
 30
0.0
 10
-94.562
 20
33.7966
 30
0.0
 10
-94.4645
 20
33.8118
 30
0.0
 10
-94.3542
 20
33.8118
 30
0.0
 10
-94.3542
 20
33.8118
 30
0.0
 10
-94.2447
 20
33.8118
 30
0.0
 10
-94.1554
 20
33.799
 30
0.0
 10
-94.0867
 20
33.7731
 30
0.0
 10
-94.0867
 20
33.7731
 30
0.0
 10
-94.0183
 20
33.7472
 30
0.0
 10
-93.9677
 20
33.7151
 30
0.0
 10
-93.9356
 20
33.676
 30
0.0
 10
-93.9356
 20
33.676
 30
0.0
 10
-93.9035
 20
33.6369
 30
0.0
 10
-93.8809
 20
33.5875
 30
0.0
 10
-93.8677
 20
33.5278
 30
0.0
 10
-93.8677
 20
33.5278
 30
0.0
 10
-93.8607
 20
33.4908
 30
0.0
 10
-93.857
 20
33.4241
 30
0.0
 10
-93.857
 20
33.3282
 30
0.0
 10
-93.857
 20
33.3282
 30
0.0
 10
-93.857
 20
33.3282
 30
0.0
 10
-93.857
 20
33.0401
 30
0.0
 10
-93.857
 20
33.0401
 30
0.0
 10
-93.857
 20
33.0401
 30
0.0
 10
-93.857
 20
32.8388
 30
0.0
 10
-93.8525
 20
32.7117
 30
0.0
 10
-93.8434
 20
32.6577
 30
0.0
 10
-93.8434
 20
32.6577
 30
0.0
 10
-93.8348
 20
32.6038
 30
0.0
 10
-93.8167
 20
32.5524
 30
0.0
 10
-93.7903
 20
32.503
 30
0.0
 10
-93.7903
 20
32.503
 30
0.0
 10
-93.7903
 20
32.503
 30
0.0
 10
-94.0175
 20
32.503
 30
0.0
 10
-94.0175
 20
32.503
 30
0.0
 10
-94.0175
 20
32.503
 30
0.0
 10
-94.0393
 20
32.5487
 30
0.0
 10
-94.0533
 20
32.6022
 30
0.0
 10
-94.0595
 20
32.6635
 30
0.0
  0
SPLINE
  5
A3
330
1F
100
AcDbEntity
  8
0
 62
     1
100
AcDbSpline
210
0.0
220
0.0
230
1.0
 70
    11
 71
     3
 72
    44
 73
    40
 74
     0
 42
0.000000001
 43
0.0000000001
 40
0.0
 40
0.0
 40
0.0
 40
0.0
 40
0.0909090909090909
 40
0.0909090909090909
 40
0.0909090909090909
 40
0.0909090909090909
 40
0.1818181818181818
 40
0.1818181818181818
 40
0.1818181818181818
 40
0.1818181818181818
 40
0.2727272727272727
 40
0.2727272727272727
 40
0.2727272727272727
 40
0.2727272727272727
 40
0.3636363636363636
 40
0.3636363636363636
 40
0.3636363636363636
 40
0.3636363636363636
 40
0.4545454545454545
 40
0.4545454545454545
 40
0.4545454545454545
 40
0.4545454545454545
 40
0.5454545454545454
 40
0.5454545454545454
 40
0.5454545454545454
 40
0.5454545454545454
 40
0.6363636363636364
 40
0.6363636363636364
 40
0.6363636363636364
 40
0.6363636363636364
 40
0.7272727272727273
 40
0.7272727272727273
 40
0.7272727272727273
 40
0.7272727272727273
 40
0.8181818181818182
 40
0.8181818181818182
 40
0.8181818181818182
 40
0.8181818181818182
 40
1.0
 40
1.0
 40
1.0
 40
1.0
 10
-94.0768
 20
33.145
 30
0.0
 10
-94.1558
 20
33.1129
 30
0.0
 10
-94.2743
 20
33.0858
 30
0.0
 10
-94.4324
 20
33.0636
 30
0.0
 10
-94.4324
 20
33.0636
 30
0.0
 10
-94.5221
 20
33.0508
 30
0.0
 10
-94.5855
 20
33.0364
 30
0.0
 10
-94.6225
 20
33.0203
 30
0.0
 10
-94.6225
 20
33.0203
 30
0.0
 10
-94.6596
 20
33.0043
 30
0.0
 10
-94.688
 20
32.9808
 30
0.0
 10
-94.7081
 20
32.9504
 30
0.0
 10
-94.7081
 20
32.9504
 30
0.0
 10
-94.7283
 20
32.9195
 30
0.0
 10
-94.7386
 20
32.8853
 30
0.0
 10
-94.7386
 20
32.8475
 30
0.0
 10
-94.7386
 20
32.8475
 30
0.0
 10
-94.7386
 20
32.7903
 30
0.0
 10
-94.7168
 20
32.7421
 30
0.0
 10
-94.6727
 20
32.7038
 30
0.0
 10
-94.6727
 20
32.7038
 30
0.0
 10
-94.6287
 20
32.6656
 30
0.0
 10
-94.5645
 20
32.6462
 30
0.0
 10
-94.4801
 20
32.6462
 30
0.0
 10
-94.4801
 20
32.6462
 30
0.0
 10
-94.3966
 20
32.6462
 30
0.0
 10
-94.3221
 20
32.6643
 30
0.0
 10
-94.2566
 20
32.701
 30
0.0
 10
-94.2566
 20
32.701
 30
0.0
 10
-94.1916
 20
32.7372
 30
0.0
 10
-94.1435
 20
32.787
 30
0.0
 10
-94.113
 20
32.85
 30
0.0
 10
-94.113
 20
32.85
 30
0.0
 10
-94.0895
 20
32.8989
 30
0.0
 10
-94.078
 20
32.971
 30
0.0
 10
-94.078
 20
33.066
 30
0.0
 10
-94.078
 20
33.066
 30
0.0
 10
-94.078
 20
33.066
 30
0.0
 10
-94.0768
 20
33.145
 30
0.0
 10
-94.0768
 20
33.145
 30
0.0
  0
SPLINE
  5
A4
330
1F
100
AcDbEntity
  8
0
 62
     1
100
AcDbSpline
210
0.0
220
0.0
230
1.0
 70
    11
 71
     3
 72
    64
 73
    60
 74
     0
 42
0.000000001
 43
0.0000000001
 40
0.0
 40
0.0
 40
0.0
 40
0.0
 40
0.0625
 40
0.0625
 40
0.0625
 40
0.0625
 40
0.125
 40
0.125
 40
0.125
 40
0.125
 40
0.1875
 40
0.1875
 40
0.1875
 40
0.1875
 40
0.25
 40
0.25
 40
0.25
 40
0.25
 40
0.3125
 40
0.3125
 40
0.3125
 40
0.3125
 40
0.375
 40
0.375
 40
0.375
 40
0.375
 40
0.4375
 40
0.4375
 40
0.4375
 40
0.4375
 40
0.5
 40
0.5
 40
0.5
 40
0.5
 40
0.5625
 40
0.5625
 40
0.5625
 40
0.5625
 40
0.625
 40
0.625
 40
0.625
 40
0.625
 40
0.6875
 40
0.6875
 40
0.6875
 40
0.6875
 40
0.75
 40
0.75
 40
0.75
 40
0.75
 40
0.8125
 40
0.8125
 40
0.8125
 40
0.8125
 40
0.875
 40
0.875
 40
0.875
 40
0.875
 40
1.0
 40
1.0
 40
1.0
 40
1.0
 10
-91.963
 20
32.9179
 30
0.0
 10
-91.963
 20
32.9179
 30
0.0
 10
-91.7382
 20
32.8882
 30
0.0
 10
-91.7382
 20
32.8882
 30
0.0
 10
-91.7382
 20
32.8882
 30
0.0
 10
-91.7732
 20
32.7578
 30
0.0
 10
-91.8387
 20
32.6561
 30
0.0
 10
-91.9341
 20
32.5841
 30
0.0
 10
-91.9341
 20
32.5841
 30
0.0
 10
-92.0296
 20
32.5121
 30
0.0
 10
-92.1514
 20
32.4758
 30
0.0
 10
-92.3
 20
32.4758
 30
0.0
 10
-92.3
 20
32.4758
 30
0.0
 10
-92.4869
 20
32.4758
 30
0.0
 10
-92.635
 20
32.5335
 30
0.0
 10
-92.7445
 20
32.6487
 30
0.0
 10
-92.7445
 20
32.6487
 30
0.0
 10
-92.854
 20
32.7635
 30
0.0
 10
-92.9087
 20
32.9253
 30
0.0
 10
-92.9087
 20
33.1331
 30
0.0
 10
-92.9087
 20
33.1331
 30
0.0
 10
-92.9087
 20
33.3479
 30
0.0
 10
-92.8536
 20
33.515
 30
0.0
 10
-92.7429
 20
33.6336
 30
0.0
 10
-92.7429
 20
33.6336
 30
0.0
 10
-92.6322
 20
33.7525
 30
0.0
 10
-92.4885
 20
33.8118
 30
0.0
 10
-92.312
 20
33.8118
 30
0.0
 10
-92.312
 20
33.8118
 30
0.0
 10
-92.1412
 20
33.8118
 30
0.0
 10
-92.0016
 20
33.7538
 30
0.0
 10
-91.8934
 20
33.6373
 30
0.0
 10
-91.8934
 20
33.6373
 30
0.0
 10
-91.7852
 20
33.5208
 30
0.0
 10
-91.7308
 20
33.357
 30
0.0
 10
-91.7308
 20
33.1459
 30
0.0
 10
-91.7308
 20
33.1459
 30
0.0
 10
-91.7308
 20
33.1331
 30
0.0
 10
-91.7312
 20
33.1138
 30
0.0
 10
-91.7321
 20
33.0882
 30
0.0
 10
-91.7321
 20
33.0882
 30
0.0
 10
-91.7321
 20
33.0882
 30
0.0
 10
-92.6865
 20
33.0882
 30
0.0
 10
-92.6865
 20
33.0882
 30
0.0
 10
-92.6865
 20
33.0882
 30
0.0
 10
-92.6783
 20
32.9479
 30
0.0
 10
-92.6387
 20
32.8401
 30
0.0
 10
-92.5671
 20
32.7656
 30
0.0
 10
-92.5671
 20
32.7656
 30
0.0
 10
-92.4959
 20
32.6911
 30
0.0
 10
-92.4066
 20
32.6536
 30
0.0
 10
-92.3
 20
32.6536
 30
0.0
 10
-92.3
 20
32.6536
 30
0.0
 10
-92.2206
 20
32.6536
 30
0.0
 10
-92.1527
 20
32.6746
 30
0.0
 10
-92.0967
 20
32.7166
 30
0.0
 10
-92.0967
 20
32.7166
 30
0.0
 10
-92.0403
 20
32.7586
 30
0.0
 10
-91.9959
 20
32.8257
 30
0.0
 10
-91.963
 20
32.9179
 30
0.0
  0
SPLINE
  5
A5
330
1F
100
AcDbEntity
  8
0
 62
     1
100
AcDbSpline
210
0.0
220
0.0
230
1.0
 70
    11
 71
     3
 72
    24
 73
    20
 74
     0
 42
0.000000001
 43
0.0000000001
 40
0.0
 40
0.0
 40
0.0
 40
0.0
 40
0.1666666666666667
 40
0.1666666666666667
 40
0.1666666666666667
 40
0.1666666666666667
 40
0.3333333333333333
 40
0.3333333333333333
 40
0.3333333333333333
 40
0.3333333333333333
 40
0.5
 40
0.5
 40
0.5
 40
0.5
 40
0.6666666666666666
 40
0.6666666666666666
 40
0.6666666666666666
 40
0.6666666666666666
 40
1.0
 40
1.0
 40
1.0
 40
1.0
 10
-92.6741
 20
33.266
 30
0.0
 10
-92.6741
 20
33.266
 30
0.0
 10
-91.9605
 20
33.266
 30
0.0
 10
-91.9605
 20
33.266
 30
0.0
 10
-91.9605
 20
33.266
 30
0.0
 10
-91.9699
 20
33.3739
 30
0.0
 10
-91.9975
 20
33.4545
 30
0.0
 10
-92.0424
 20
33.5085
 30
0.0
 10
-92.0424
 20
33.5085
 30
0.0
 10
-92.1111
 20
33.592
 30
0.0
 10
-92.2008
 20
33.634
 30
0.0
 10
-92.3107
 20
33.634
 30
0.0
 10
-92.3107
 20
33.634
 30
0.0
 10
-92.4103
 20
33.634
 30
0.0
 10
-92.4939
 20
33.6006
 30
0.0
 10
-92.5618
 20
33.534
 30
0.0
 10
-92.5618
 20
33.534
 30
0.0
 10
-92.6293
 20
33.4673
 30
0.0
 10
-92.6667
 20
33.378
 30
0.0
 10
-92.6741
 20
33.266
 30
0.0
  0
SPLINE
  5
A6
330
1F
100
AcDbEntity
  8
0
 62
     1
100
AcDbSpline
210
0.0
220
0.0
230
1.0
 70
    11
 71
     3
 72
    20
 73
    16
 74
     0
 42
0.000000001
 43
0.0000000001
 40
0.0
 40
0.0
 40
0.0
 40
0.0
 40
0.2
 40
0.2
 40
0.2
 40
0.2
 40
0.4
 40
0.4
 40
0.4
 40
0.4
 40
0.6
 40
0.6
 40
0.6
 40
0.6
 40
1.0
 40
1.0
 40
1.0
 40
1.0
 10
-92.4914
 20
33.9427
 30
0.0
 10
-92.4914
 20
33.9427
 30
0.0
 10
-92.3334
 20
34.281
 30
0.0
 10
-92.3334
 20
34.281
 30
0.0
 10
-92.3334
 20
34.281
 30
0.0
 10
-92.3334
 20
34.281
 30
0.0
 10
-92.0469
 20
34.281
 30
0.0
 10
-92.0469
 20
34.281
 30
0.0
 10
-92.0469
 20
34.281
 30
0.0
 10
-92.0469
 20
34.281
 30
0.0
 10
-92.3111
 20
33.9427
 30
0.0
 10
-92.3111
 20
33.9427
 30
0.0
 10
-92.3111
 20
33.9427
 30
0.0
 10
-92.3111
 20
33.9427
 30
0.0
 10
-92.4914
 20
33.9427
 30
0.0
 10
-92.4914
 20
33.9427
 30
0.0
  0
SPLINE
  5
A7
330
1F
100
AcDbEntity
  8
0
 62
     1
100
AcDbSpline
210
0.0
220
0.0
230
1.0
 70
    11
 71
     3
 72
    80
 73
    76
 74
     0
 42
0.000000001
 43
0.0000000001
 40
0.0
 40
0.0
 40
0.0
 40
0.0
 40
0.05
 40
0.05
 40
0.05
 40
0.05
 40
0.1
 40
0.1
 40
0.1
 40
0.1
 40
0.15
 40
0.15
 40
0.15
 40
0.15
 40
0.2
 40
0.2
 40
0.2
 40
0.2
 40
0.25
 40
0.25
 40
0.25
 40
0.25
 40
0.3
 40
0.3
 40
0.3
 40
0.3
 40
0.35
 40
0.35
 40
0.35
 40
0.35
 40
0.4
 40
0.4
 40
0.4
 40
0.4
 40
0.45
 40
0.45
 40
0.45
 40
0.45
 40
0.5
 40
0.5
 40
0.5
 40
0.5
 40
0.55
 40
0.55
 40
0.55
 40
0.55
 40
0.6
 40
0.6
 40
0.6
 40
0.6
 40
0.65
 40
0.65
 40
0.65
 40
0.65
 40
0.7
 40
0.7
 40
0.7
 40
0.7
 40
0.75
 40
0.75
 40
0.75
 40
0.75
 40
0.8
 40
0.8
 40
0.8
 40
0.8
 40
0.85
 40
0.85
 40
0.85
 40
0.85
 40
0.9
 40
0.9
 40
0.9
 40
0.9
 40
1.0
 40
1.0
 40
1.0
 40
1.0
 10
-90.6266
 20
32.9722
 30
0.0
 10
-90.6266
 20
32.9722
 30
0.0
 10
-90.4142
 20
32.9426
 30
0.0
 10
-90.4142
 20
32.9426
 30
0.0
 10
-90.4142
 20
32.9426
 30
0.0
 10
-90.4377
 20
32.7964
 30
0.0
 10
-90.4969
 20
32.6824
 30
0.0
 10
-90.5928
 20
32.5997
 30
0.0
 10
-90.5928
 20
32.5997
 30
0.0
 10
-90.6887
 20
32.517
 30
0.0
 10
-90.8069
 20
32.4758
 30
0.0
 10
-90.9464
 20
32.4758
 30
0.0
 10
-90.9464
 20
32.4758
 30
0.0
 10
-91.1213
 20
32.4758
 30
0.0
 10
-91.2621
 20
32.533
 30
0.0
 10
-91.3682
 20
32.6475
 30
0.0
 10
-91.3682
 20
32.6475
 30
0.0
 10
-91.4748
 20
32.7619
 30
0.0
 10
-91.5279
 20
32.9257
 30
0.0
 10
-91.5279
 20
33.1389
 30
0.0
 10
-91.5279
 20
33.1389
 30
0.0
 10
-91.5279
 20
33.2772
 30
0.0
 10
-91.5049
 20
33.3977
 30
0.0
 10
-91.4592
 20
33.5015
 30
0.0
 10
-91.4592
 20
33.5015
 30
0.0
 10
-91.4135
 20
33.6048
 30
0.0
 10
-91.344
 20
33.6826
 30
0.0
 10
-91.2501
 20
33.734
 30
0.0
 10
-91.2501
 20
33.734
 30
0.0
 10
-91.1567
 20
33.7859
 30
0.0
 10
-91.055
 20
33.8118
 30
0.0
 10
-90.9447
 20
33.8118
 30
0.0
 10
-90.9447
 20
33.8118
 30
0.0
 10
-90.806
 20
33.8118
 30
0.0
 10
-90.692
 20
33.7768
 30
0.0
 10
-90.604
 20
33.7064
 30
0.0
 10
-90.604
 20
33.7064
 30
0.0
 10
-90.5155
 20
33.636
 30
0.0
 10
-90.4587
 20
33.536
 30
0.0
 10
-90.434
 20
33.4068
 30
0.0
 10
-90.434
 20
33.4068
 30
0.0
 10
-90.434
 20
33.4068
 30
0.0
 10
-90.6439
 20
33.3747
 30
0.0
 10
-90.6439
 20
33.3747
 30
0.0
 10
-90.6439
 20
33.3747
 30
0.0
 10
-90.664
 20
33.4607
 30
0.0
 10
-90.6994
 20
33.5253
 30
0.0
 10
-90.7509
 20
33.569
 30
0.0
 10
-90.7509
 20
33.569
 30
0.0
 10
-90.8019
 20
33.6122
 30
0.0
 10
-90.8637
 20
33.634
 30
0.0
 10
-90.9361
 20
33.634
 30
0.0
 10
-90.9361
 20
33.634
 30
0.0
 10
-91.0456
 20
33.634
 30
0.0
 10
-91.1345
 20
33.5949
 30
0.0
 10
-91.2032
 20
33.5167
 30
0.0
 10
-91.2032
 20
33.5167
 30
0.0
 10
-91.2715
 20
33.4381
 30
0.0
 10
-91.3057
 20
33.3146
 30
0.0
 10
-91.3057
 20
33.145
 30
0.0
 10
-91.3057
 20
33.145
 30
0.0
 10
-91.3057
 20
32.973
 30
0.0
 10
-91.2728
 20
32.8483
 30
0.0
 10
-91.2069
 20
32.7705
 30
0.0
 10
-91.2069
 20
32.7705
 30
0.0
 10
-91.1406
 20
32.6927
 30
0.0
 10
-91.0546
 20
32.6536
 30
0.0
 10
-90.9488
 20
32.6536
 30
0.0
 10
-90.9488
 20
32.6536
 30
0.0
 10
-90.8632
 20
32.6536
 30
0.0
 10
-90.792
 20
32.6796
 30
0.0
 10
-90.7352
 20
32.7318
 30
0.0
 10
-90.7352
 20
32.7318
 30
0.0
 10
-90.678
 20
32.7837
 30
0.0
 10
-90.6418
 20
32.8639
 30
0.0
 10
-90.6266
 20
32.9722
 30
0.0
  0
SPLINE
  5
A8
330
1F
100
AcDbEntity
  8
0
 62
     1
100
AcDbSpline
210
0.0
220
0.0
230
1.0
 70
    11
 71
     3
 72
    40
 73
    36
 74
     0
 42
0.000000001
 43
0.0000000001
 40
0.0
 40
0.0
 40
0.0
 40
0.0
 40
0.1
 40
0.1
 40
0.1
 40
0.1
 40
0.2
 40
0.2
 40
0.2
 40
0.2
 40
0.3
 40
0.3
 40
0.3
 40
0.3
 40
0.4
 40
0.4
 40
0.4
 40
0.4
 40
0.5
 40
0.5
 40
0.5
 40
0.5
 40
0.6
 40
0.6
 40
0.6
 40
0.6
 40
0.7
 40
0.7
 40
0.7
 40
0.7
 40
0.8
 40
0.8
 40
0.8
 40
0.8
 40
1.0
 40
1.0
 40
1.0
 40
1.0
 10
-90.3105
 20
33.1438
 30
0.0
 10
-90.3105
 20
33.3805
 30
0.0
 10
-90.2447
 20
33.5558
 30
0.0
 10
-90.1125
 20
33.6698
 30
0.0
 10
-90.1125
 20
33.6698
 30
0.0
 10
-90.0027
 20
33.7645
 30
0.0
 10
-89.8681
 20
33.8118
 30
0.0
 10
-89.7096
 20
33.8118
 30
0.0
 10
-89.7096
 20
33.8118
 30
0.0
 10
-89.5339
 20
33.8118
 30
0.0
 10
-89.3898
 20
33.7542
 30
0.0
 10
-89.2779
 20
33.6389
 30
0.0
 10
-89.2779
 20
33.6389
 30
0.0
 10
-89.1664
 20
33.5241
 30
0.0
 10
-89.1104
 20
33.3648
 30
0.0
 10
-89.1104
 20
33.1619
 30
0.0
 10
-89.1104
 20
33.1619
 30
0.0
 10
-89.1104
 20
32.9973
 30
0.0
 10
-89.1351
 20
32.8681
 30
0.0
 10
-89.1845
 20
32.7738
 30
0.0
 10
-89.1845
 20
32.7738
 30
0.0
 10
-89.2339
 20
32.6796
 30
0.0
 10
-89.3059
 20
32.6063
 30
0.0
 10
-89.4005
 20
32.554
 30
0.0
 10
-89.4005
 20
32.554
 30
0.0
 10
-89.4948
 20
32.5018
 30
0.0
 10
-89.5981
 20
32.4758
 30
0.0
 10
-89.7096
 20
32.4758
 30
0.0
 10
-89.7096
 20
32.4758
 30
0.0
 10
-89.8891
 20
32.4758
 30
0.0
 10
-90.0339
 20
32.533
 30
0.0
 10
-90.1446
 20
32.6479
 30
0.0
 10
-90.1446
 20
32.6479
 30
0.0
 10
-90.2554
 20
32.7627
 30
0.0
 10
-90.3105
 20
32.9281
 30
0.0
 10
-90.3105
 20
33.1438
 30
0.0
  0
SPLINE
  5
A9
330
1F
100
AcDbEntity
  8
0
 62
     1
100
AcDbSpline
210
0.0
220
0.0
230
1.0
 70
    11
 71
     3
 72
    36
 73
    32
 74
     0
 42
0.000000001
 43
0.0000000001
 40
0.0
 40
0.0
 40
0.0
 40
0.0
 40
0.1111111111111111
 40
0.1111111111111111
 40
0.1111111111111111
 40
0.1111111111111111
 40
0.2222222222222222
 40
0.2222222222222222
 40
0.2222222222222222
 40
0.2222222222222222
 40
0.3333333333333333
 40
0.3333333333333333
 40
0.3333333333333333
 40
0.3333333333333333
 40
0.4444444444444444
 40
0.4444444444444444
 40
0.4444444444444444
 40
0.4444444444444444
 40
0.5555555555555556
 40
0.5555555555555556
 40
0.5555555555555556
 40
0.5555555555555556
 40
0.6666666666666666
 40
0.6666666666666666
 40
0.6666666666666666
 40
0.6666666666666666
 40
0.7777777777777778
 40
0.7777777777777778
 40
0.7777777777777778
 40
0.7777777777777778
 40
1.0
 40
1.0
 40
1.0
 40
1.0
 10
-90.0883
 20
33.1434
 30
0.0
 10
-90.0883
 20
32.9796
 30
0.0
 10
-90.0525
 20
32.8569
 30
0.0
 10
-89.9808
 20
32.7759
 30
0.0
 10
-89.9808
 20
32.7759
 30
0.0
 10
-89.9088
 20
32.6944
 30
0.0
 10
-89.8187
 20
32.6536
 30
0.0
 10
-89.7096
 20
32.6536
 30
0.0
 10
-89.7096
 20
32.6536
 30
0.0
 10
-89.6018
 20
32.6536
 30
0.0
 10
-89.5121
 20
32.6944
 30
0.0
 10
-89.44
 20
32.7763
 30
0.0
 10
-89.44
 20
32.7763
 30
0.0
 10
-89.3684
 20
32.8582
 30
0.0
 10
-89.3326
 20
32.9829
 30
0.0
 10
-89.3326
 20
33.1504
 30
0.0
 10
-89.3326
 20
33.1504
 30
0.0
 10
-89.3326
 20
33.3084
 30
0.0
 10
-89.3688
 20
33.4282
 30
0.0
 10
-89.4409
 20
33.5093
 30
0.0
 10
-89.4409
 20
33.5093
 30
0.0
 10
-89.5129
 20
33.5908
 30
0.0
 10
-89.6026
 20
33.6315
 30
0.0
 10
-89.7096
 20
33.6315
 30
0.0
 10
-89.7096
 20
33.6315
 30
0.0
 10
-89.8187
 20
33.6315
 30
0.0
 10
-89.9088
 20
33.5912
 30
0.0
 10
-89.9808
 20
33.5101
 30
0.0
 10
-89.9808
 20
33.5101
 30
0.0
 10
-90.0525
 20
33.429
 30
0.0
 10
-90.0883
 20
33.3068
 30
0.0
 10
-90.0883
 20
33.1434
 30
0.0
  0
SPLINE
  5
AA
330
1F
100
AcDbEntity
  8
0
 62
     1
100
AcDbSpline
210
0.0
220
0.0
230
1.0
 70
    11
 71
     3
 72
    20
 73
    16
 74
     0
 42
0.000000001
 43
0.0000000001
 40
0.0
 40
0.0
 40
0.0
 40
0.0
 40
0.2
 40
0.2
 40
0.2
 40
0.2
 40
0.4
 40
0.4
 40
0.4
 40
0.4
 40
0.6
 40
0.6
 40
0.6
 40
0.6
 40
1.0
 40
1.0
 40
1.0
 40
1.0
 10
-88.8606
 20
32.503
 30
0.0
 10
-88.8606
 20
32.503
 30
0.0
 10
-88.8606
 20
34.2711
 30
0.0
 10
-88.8606
 20
34.2711
 30
0.0
 10
-88.8606
 20
34.2711
 30
0.0
 10
-88.8606
 20
34.2711
 30
0.0
 10
-88.6433
 20
34.2711
 30
0.0
 10
-88.6433
 20
34.2711
 30
0.0
 10
-88.6433
 20
34.2711
 30
0.0
 10
-88.6433
 20
34.2711
 30
0.0
 10
-88.6433
 20
32.503
 30
0.0
 10
-88.6433
 20
32.503
 30
0.0
 10
-88.6433
 20
32.503
 30
0.0
 10
-88.6433
 20
32.503
 30
0.0
 10
-88.8606
 20
32.503
 30
0.0
 10
-88.8606
 20
32.503
 30
0.0
  0
SPLINE
  5
AB
330
1F
100
AcDbEntity
  8
0
 62
     1
100
AcDbSpline
210
0.0
220
0.0
230
1.0
 70
    11
 71
     3
 72
    64
 73
    60
 74
     0
 42
0.000000001
 43
0.0000000001
 40
0.0
 40
0.0
 40
0.0
 40
0.0
 40
0.0625
 40
0.0625
 40
0.0625
 40
0.0625
 40
0.125
 40
0.125
 40
0.125
 40
0.125
 40
0.1875
 40
0.1875
 40
0.1875
 40
0.1875
 40
0.25
 40
0.25
 40
0.25
 40
0.25
 40
0.3125
 40
0.3125
 40
0.3125
 40
0.3125
 40
0.375
 40
0.375
 40
0.375
 40
0.375
 40
0.4375
 40
0.4375
 40
0.4375
 40
0.4375
 40
0.5
 40
0.5
 40
0.5
 40
0.5
 40
0.5625
 40
0.5625
 40
0.5625
 40
0.5625
 40
0.625
 40
0.625
 40
0.625
 40
0.625
 40
0.6875
 40
0.6875
 40
0.6875
 40
0.6875
 40
0.75
 40
0.75
 40
0.75
 40
0.75
 40
0.8125
 40
0.8125
 40
0.8125
 40
0.8125
 40
0.875
 40
0.875
 40
0.875
 40
0.875
 40
1.0
 40
1.0
 40
1.0
 40
1.0
 10
-87.4329
 20
32.9179
 30
0.0
 10
-87.4329
 20
32.9179
 30
0.0
 10
-87.2081
 20
32.8882
 30
0.0
 10
-87.2081
 20
32.8882
 30
0.0
 10
-87.2081
 20
32.8882
 30
0.0
 10
-87.2431
 20
32.7578
 30
0.0
 10
-87.3086
 20
32.6561
 30
0.0
 10
-87.404
 20
32.5841
 30
0.0
 10
-87.404
 20
32.5841
 30
0.0
 10
-87.4995
 20
32.5121
 30
0.0
 10
-87.6213
 20
32.4758
 30
0.0
 10
-87.7699
 20
32.4758
 30
0.0
 10
-87.7699
 20
32.4758
 30
0.0
 10
-87.9568
 20
32.4758
 30
0.0
 10
-88.1049
 20
32.5335
 30
0.0
 10
-88.2144
 20
32.6487
 30
0.0
 10
-88.2144
 20
32.6487
 30
0.0
 10
-88.3239
 20
32.7635
 30
0.0
 10
-88.3786
 20
32.9253
 30
0.0
 10
-88.3786
 20
33.1331
 30
0.0
 10
-88.3786
 20
33.1331
 30
0.0
 10
-88.3786
 20
33.3479
 30
0.0
 10
-88.3235
 20
33.515
 30
0.0
 10
-88.2128
 20
33.6336
 30
0.0
 10
-88.2128
 20
33.6336
 30
0.0
 10
-88.1021
 20
33.7525
 30
0.0
 10
-87.9584
 20
33.8118
 30
0.0
 10
-87.7819
 20
33.8118
 30
0.0
 10
-87.7819
 20
33.8118
 30
0.0
 10
-87.6111
 20
33.8118
 30
0.0
 10
-87.4715
 20
33.7538
 30
0.0
 10
-87.3633
 20
33.6373
 30
0.0
 10
-87.3633
 20
33.6373
 30
0.0
 10
-87.2551
 20
33.5208
 30
0.0
 10
-87.2007
 20
33.357
 30
0.0
 10
-87.2007
 20
33.1459
 30
0.0
 10
-87.2007
 20
33.1459
 30
0.0
 10
-87.2007
 20
33.1331
 30
0.0
 10
-87.2011
 20
33.1138
 30
0.0
 10
-87.202
 20
33.0882
 30
0.0
 10
-87.202
 20
33.0882
 30
0.0
 10
-87.202
 20
33.0882
 30
0.0
 10
-88.1564
 20
33.0882
 30
0.0
 10
-88.1564
 20
33.0882
 30
0.0
 10
-88.1564
 20
33.0882
 30
0.0
 10
-88.1482
 20
32.9479
 30
0.0
 10
-88.1086
 20
32.8401
 30
0.0
 10
-88.037
 20
32.7656
 30
0.0
 10
-88.037
 20
32.7656
 30
0.0
 10
-87.9658
 20
32.6911
 30
0.0
 10
-87.8765
 20
32.6536
 30
0.0
 10
-87.7699
 20
32.6536
 30
0.0
 10
-87.7699
 20
32.6536
 30
0.0
 10
-87.6905
 20
32.6536
 30
0.0
 10
-87.6226
 20
32.6746
 30
0.0
 10
-87.5666
 20
32.7166
 30
0.0
 10
-87.5666
 20
32.7166
 30
0.0
 10
-87.5102
 20
32.7586
 30
0.0
 10
-87.4658
 20
32.8257
 30
0.0
 10
-87.4329
 20
32.9179
 30
0.0
  0
SPLINE
  5
AC
330
1F
100
AcDbEntity
  8
0
 62
     1
100
AcDbSpline
210
0.0
220
0.0
230
1.0
 70
    11
 71
     3
 72
    24
 73
    20
 74
     0
 42
0.000000001
 43
0.0000000001
 40
0.0
 40
0.0
 40
0.0
 40
0.0
 40
0.1666666666666667
 40
0.1666666666666667
 40
0.1666666666666667
 40
0.1666666666666667
 40
0.3333333333333333
 40
0.3333333333333333
 40
0.3333333333333333
 40
0.3333333333333333
 40
0.5
 40
0.5
 40
0.5
 40
0.5
 40
0.6666666666666666
 40
0.6666666666666666
 40
0.6666666666666666
 40
0.6666666666666666
 40
1.0
 40
1.0
 40
1.0
 40
1.0
 10
-88.144
 20
33.266
 30
0.0
 10
-88.144
 20
33.266
 30
0.0
 10
-87.4304
 20
33.266
 30
0.0
 10
-87.4304
 20
33.266
 30
0.0
 10
-87.4304
 20
33.266
 30
0.0
 10
-87.4398
 20
33.3739
 30
0.0
 10
-87.4674
 20
33.4545
 30
0.0
 10
-87.5123
 20
33.5085
 30
0.0
 10
-87.5123
 20
33.5085
 30
0.0
 10
-87.581
 20
33.592
 30
0.0
 10
-87.6707
 20
33.634
 30
0.0
 10
-87.7806
 20
33.634
 30
0.0
 10
-87.7806
 20
33.634
 30
0.0
 10
-87.8802
 20
33.634
 30
0.0
 10
-87.9638
 20
33.6006
 30
0.0
 10
-88.0317
 20
33.534
 30
0.0
 10
-88.0317
 20
33.534
 30
0.0
 10
-88.0992
 20
33.4673
 30
0.0
 10
-88.1366
 20
33.378
 30
0.0
 10
-88.144
 20
33.266
 30
0.0
  0
SPLINE
  5
AD
330
1F
100
AcDbEntity
  8
0
 62
     1
100
AcDbSpline
210
0.0
220
0.0
230
1.0
 70
    11
 71
     3
 72
    60
 73
    56
 74
     0
 42
0.000000001
 43
0.0000000001
 40
0.0
 40
0.0
 40
0.0
 40
0.0
 40
0.0666666666666667
 40
0.0666666666666667
 40
0.0666666666666667
 40
0.0666666666666667
 40
0.1333333333333333
 40
0.1333333333333333
 40
0.1333333333333333
 40
0.1333333333333333
 40
0.2
 40
0.2
 40
0.2
 40
0.2
 40
0.2666666666666667
 40
0.2666666666666667
 40
0.2666666666666667
 40
0.2666666666666667
 40
0.3333333333333333
 40
0.3333333333333333
 40
0.3333333333333333
 40
0.3333333333333333
 40
0.4
 40
0.4
 40
0.4
 40
0.4
 40
0.4666666666666667
 40
0.4666666666666667
 40
0.4666666666666667
 40
0.4666666666666667
 40
0.5333333333333333
 40
0.5333333333333333
 40
0.5333333333333333
 40
0.5333333333333333
 40
0.6
 40
0.6
 40
0.6
 40
0.6
 40
0.6666666666666666
 40
0.6666666666666666
 40
0.6666666666666666
 40
0.6666666666666666
 40
0.7333333333333333
 40
0.7333333333333333
 40
0.7333333333333333
 40
0.7333333333333333
 40
0.8
 40
0.8
 40
0.8
 40
0.8
 40
0.8666666666666667
 40
0.8666666666666667
 40
0.8666666666666667
 40
0.8666666666666667
 40
1.0
 40
1.0
 40
1.0
 40
1.0
 10
-85.4203
 20
32.503
 30
0.0
 10
-85.4203
 20
32.503
 30
0.0
 10
-85.4203
 20
32.6656
 30
0.0
 10
-85.4203
 20
32.6656
 30
0.0
 10
-85.4203
 20
32.6656
 30
0.0
 10
-85.5013
 20
32.5392
 30
0.0
 10
-85.6207
 20
32.4758
 30
0.0
 10
-85.7783
 20
32.4758
 30
0.0
 10
-85.7783
 20
32.4758
 30
0.0
 10
-85.8804
 20
32.4758
 30
0.0
 10
-85.9742
 20
32.5038
 30
0.0
 10
-86.0594
 20
32.5602
 30
0.0
 10
-86.0594
 20
32.5602
 30
0.0
 10
-86.145
 20
32.6162
 30
0.0
 10
-86.2113
 20
32.6948
 30
0.0
 10
-86.2586
 20
32.7952
 30
0.0
 10
-86.2586
 20
32.7952
 30
0.0
 10
-86.3056
 20
32.896
 30
0.0
 10
-86.329
 20
33.0117
 30
0.0
 10
-86.329
 20
33.1426
 30
0.0
 10
-86.329
 20
33.1426
 30
0.0
 10
-86.329
 20
33.2702
 30
0.0
 10
-86.3076
 20
33.3858
 30
0.0
 10
-86.2652
 20
33.4899
 30
0.0
 10
-86.2652
 20
33.4899
 30
0.0
 10
-86.2224
 20
33.5937
 30
0.0
 10
-86.1586
 20
33.6735
 30
0.0
 10
-86.0734
 20
33.7286
 30
0.0
 10
-86.0734
 20
33.7286
 30
0.0
 10
-85.9886
 20
33.7842
 30
0.0
 10
-85.8932
 20
33.8118
 30
0.0
 10
-85.7882
 20
33.8118
 30
0.0
 10
-85.7882
 20
33.8118
 30
0.0
 10
-85.7108
 20
33.8118
 30
0.0
 10
-85.6421
 20
33.7953
 30
0.0
 10
-85.582
 20
33.7628
 30
0.0
 10
-85.582
 20
33.7628
 30
0.0
 10
-85.5219
 20
33.7303
 30
0.0
 10
-85.473
 20
33.6875
 30
0.0
 10
-85.4351
 20
33.6352
 30
0.0
 10
-85.4351
 20
33.6352
 30
0.0
 10
-85.4351
 20
33.6352
 30
0.0
 10
-85.4351
 20
34.2711
 30
0.0
 10
-85.4351
 20
34.2711
 30
0.0
 10
-85.4351
 20
34.2711
 30
0.0
 10
-85.4351
 20
34.2711
 30
0.0
 10
-85.2178
 20
34.2711
 30
0.0
 10
-85.2178
 20
34.2711
 30
0.0
 10
-85.2178
 20
34.2711
 30
0.0
 10
-85.2178
 20
34.2711
 30
0.0
 10
-85.2178
 20
32.503
 30
0.0
 10
-85.2178
 20
32.503
 30
0.0
 10
-85.2178
 20
32.503
 30
0.0
 10
-85.2178
 20
32.503
 30
0.0
 10
-85.4203
 20
32.503
 30
0.0
 10
-85.4203
 20
32.503
 30
0.0
  0
SPLINE
  5
AE
330
1F
100
AcDbEntity
  8
0
 62
     1
100
AcDbSpline
210
0.0
220
0.0
230
1.0
 70
    11
 71
     3
 72
    36
 73
    32
 74
     0
 42
0.000000001
 43
0.0000000001
 40
0.0
 40
0.0
 40
0.0
 40
0.0
 40
0.1111111111111111
 40
0.1111111111111111
 40
0.1111111111111111
 40
0.1111111111111111
 40
0.2222222222222222
 40
0.2222222222222222
 40
0.2222222222222222
 40
0.2222222222222222
 40
0.3333333333333333
 40
0.3333333333333333
 40
0.3333333333333333
 40
0.3333333333333333
 40
0.4444444444444444
 40
0.4444444444444444
 40
0.4444444444444444
 40
0.4444444444444444
 40
0.5555555555555556
 40
0.5555555555555556
 40
0.5555555555555556
 40
0.5555555555555556
 40
0.6666666666666666
 40
0.6666666666666666
 40
0.6666666666666666
 40
0.6666666666666666
 40
0.7777777777777778
 40
0.7777777777777778
 40
0.7777777777777778
 40
0.7777777777777778
 40
1.0
 40
1.0
 40
1.0
 40
1.0
 10
-86.1068
 20
33.1422
 30
0.0
 10
-86.1068
 20
32.9784
 30
0.0
 10
-86.0722
 20
32.8561
 30
0.0
 10
-86.0026
 20
32.775
 30
0.0
 10
-86.0026
 20
32.775
 30
0.0
 10
-85.9335
 20
32.694
 30
0.0
 10
-85.8516
 20
32.6536
 30
0.0
 10
-85.7573
 20
32.6536
 30
0.0
 10
-85.7573
 20
32.6536
 30
0.0
 10
-85.6623
 20
32.6536
 30
0.0
 10
-85.5816
 20
32.6923
 30
0.0
 10
-85.5149
 20
32.7697
 30
0.0
 10
-85.5149
 20
32.7697
 30
0.0
 10
-85.4487
 20
32.8471
 30
0.0
 10
-85.4153
 20
32.9652
 30
0.0
 10
-85.4153
 20
33.1241
 30
0.0
 10
-85.4153
 20
33.1241
 30
0.0
 10
-85.4153
 20
33.2986
 30
0.0
 10
-85.4491
 20
33.427
 30
0.0
 10
-85.517
 20
33.5089
 30
0.0
 10
-85.517
 20
33.5089
 30
0.0
 10
-85.5845
 20
33.5908
 30
0.0
 10
-85.668
 20
33.6315
 30
0.0
 10
-85.7672
 20
33.6315
 30
0.0
 10
-85.7672
 20
33.6315
 30
0.0
 10
-85.8639
 20
33.6315
 30
0.0
 10
-85.9446
 20
33.5924
 30
0.0
 10
-86.0096
 20
33.5138
 30
0.0
 10
-86.0096
 20
33.5138
 30
0.0
 10
-86.0743
 20
33.4352
 30
0.0
 10
-86.1068
 20
33.3113
 30
0.0
 10
-86.1068
 20
33.1422
 30
0.0
  0
SPLINE
  5
AF
330
1F
100
AcDbEntity
  8
0
 62
     1
100
AcDbSpline
210
0.0
220
0.0
230
1.0
 70
    11
 71
     3
 72
    40
 73
    36
 74
     0
 42
0.000000001
 43
0.0000000001
 40
0.0
 40
0.0
 40
0.0
 40
0.0
 40
0.1
 40
0.1
 40
0.1
 40
0.1
 40
0.2
 40
0.2
 40
0.2
 40
0.2
 40
0.3
 40
0.3
 40
0.3
 40
0.3
 40
0.4
 40
0.4
 40
0.4
 40
0.4
 40
0.5
 40
0.5
 40
0.5
 40
0.5
 40
0.6
 40
0.6
 40
0.6
 40
0.6
 40
0.7
 40
0.7
 40
0.7
 40
0.7
 40
0.8
 40
0.8
 40
0.8
 40
0.8
 40
1.0
 40
1.0
 40
1.0
 40
1.0
 10
-84.884
 20
34.0365
 30
0.0
 10
-84.884
 20
34.0365
 30
0.0
 10
-84.884
 20
34.2884
 30
0.0
 10
-84.884
 20
34.2884
 30
0.0
 10
-84.884
 20
34.2884
 30
0.0
 10
-84.884
 20
34.2884
 30
0.0
 10
-84.6519
 20
34.2884
 30
0.0
 10
-84.6519
 20
34.2884
 30
0.0
 10
-84.6519
 20
34.2884
 30
0.0
 10
-84.6519
 20
34.2884
 30
0.0
 10
-84.6519
 20
34.0884
 30
0.0
 10
-84.6519
 20
34.0884
 30
0.0
 10
-84.6519
 20
34.0884
 30
0.0
 10
-84.6519
 20
33.9813
 30
0.0
 10
-84.6642
 20
33.904
 30
0.0
 10
-84.6893
 20
33.8571
 30
0.0
 10
-84.6893
 20
33.8571
 30
0.0
 10
-84.7243
 20
33.792
 30
0.0
 10
-84.7782
 20
33.7435
 30
0.0
 10
-84.8519
 20
33.7105
 30
0.0
 10
-84.8519
 20
33.7105
 30
0.0
 10
-84.8519
 20
33.7105
 30
0.0
 10
-84.9038
 20
33.7961
 30
0.0
 10
-84.9038
 20
33.7961
 30
0.0
 10
-84.9038
 20
33.7961
 30
0.0
 10
-84.8601
 20
33.8138
 30
0.0
 10
-84.828
 20
33.8414
 30
0.0
 10
-84.8066
 20
33.8797
 30
0.0
 10
-84.8066
 20
33.8797
 30
0.0
 10
-84.7852
 20
33.9176
 30
0.0
 10
-84.7733
 20
33.9698
 30
0.0
 10
-84.7708
 20
34.0365
 30
0.0
 10
-84.7708
 20
34.0365
 30
0.0
 10
-84.7708
 20
34.0365
 30
0.0
 10
-84.884
 20
34.0365
 30
0.0
 10
-84.884
 20
34.0365
 30
0.0
  0
SPLINE
  5
B0
330
1F
100
AcDbEntity
  8
0
 62
     1
100
AcDbSpline
210
0.0
220
0.0
230
1.0
 70
    11
 71
     3
 72
    20
 73
    16
 74
     0
 42
0.000000001
 43
0.0000000001
 40
0.0
 40
0.0
 40
0.0
 40
0.0
 40
0.2
 40
0.2
 40
0.2
 40
0.2
 40
0.4
 40
0.4
 40
0.4
 40
0.4
 40
0.6
 40
0.6
 40
0.6
 40
0.6
 40
1.0
 40
1.0
 40
1.0
 40
1.0
 10
-84.2588
 20
32.503
 30
0.0
 10
-84.2588
 20
32.503
 30
0.0
 10
-84.2588
 20
34.2711
 30
0.0
 10
-84.2588
 20
34.2711
 30
0.0
 10
-84.2588
 20
34.2711
 30
0.0
 10
-84.2588
 20
34.2711
 30
0.0
 10
-84.0243
 20
34.2711
 30
0.0
 10
-84.0243
 20
34.2711
 30
0.0
 10
-84.0243
 20
34.2711
 30
0.0
 10
-84.0243
 20
34.2711
 30
0.0
 10
-84.0243
 20
32.503
 30
0.0
 10
-84.0243
 20
32.503
 30
0.0
 10
-84.0243
 20
32.503
 30
0.0
 10
-84.0243
 20
32.503
 30
0.0
 10
-84.2588
 20
32.503
 30
0.0
 10
-84.2588
 20
32.503
 30
0.0
  0
SPLINE
  5
B1
330
1F
100
AcDbEntity
  8
0
 62
     1
100
AcDbSpline
210
0.0
220
0.0
230
1.0
 70
    11
 71
     3
 72
    76
 73
    72
 74
     0
 42
0.000000001
 43
0.0000000001
 40
0.0
 40
0.0
 40
0.0
 40
0.0
 40
0.0526315789473684
 40
0.0526315789473684
 40
0.0526315789473684
 40
0.0526315789473684
 40
0.1052631578947368
 40
0.1052631578947368
 40
0.1052631578947368
 40
0.1052631578947368
 40
0.1578947368421053
 40
0.1578947368421053
 40
0.1578947368421053
 40
0.1578947368421053
 40
0.2105263157894737
 40
0.2105263157894737
 40
0.2105263157894737
 40
0.2105263157894737
 40
0.2631578947368421
 40
0.2631578947368421
 40
0.2631578947368421
 40
0.2631578947368421
 40
0.3157894736842105
 40
0.3157894736842105
 40
0.3157894736842105
 40
0.3157894736842105
 40
0.3684210526315789
 40
0.3684210526315789
 40
0.3684210526315789
 40
0.3684210526315789
 40
0.4210526315789473
 40
0.4210526315789473
 40
0.4210526315789473
 40
0.4210526315789473
 40
0.4736842105263158
 40
0.4736842105263158
 40
0.4736842105263158
 40
0.4736842105263158
 40
0.5263157894736842
 40
0.5263157894736842
 40
0.5263157894736842
 40
0.5263157894736842
 40
0.5789473684210527
 40
0.5789473684210527
 40
0.5789473684210527
 40
0.5789473684210527
 40
0.631578947368421
 40
0.631578947368421
 40
0.631578947368421
 40
0.631578947368421
 40
0.6842105263157895
 40
0.6842105263157895
 40
0.6842105263157895
 40
0.6842105263157895
 40
0.7368421052631579
 40
0.7368421052631579
 40
0.7368421052631579
 40
0.7368421052631579
 40
0.7894736842105263
 40
0.7894736842105263
 40
0.7894736842105263
 40
0.7894736842105263
 40
0.8421052631578947
 40
0.8421052631578947
 40
0.8421052631578947
 40
0.8421052631578947
 40
0.8947368421052632
 40
0.8947368421052632
 40
0.8947368421052632
 40
0.8947368421052632
 40
1.0
 40
1.0
 40
1.0
 40
1.0
 10
-83.6394
 20
32.503
 30
0.0
 10
-83.6394
 20
32.503
 30
0.0
 10
-83.6394
 20
33.7846
 30
0.0
 10
-83.6394
 20
33.7846
 30
0.0
 10
-83.6394
 20
33.7846
 30
0.0
 10
-83.6394
 20
33.7846
 30
0.0
 10
-83.4443
 20
33.7846
 30
0.0
 10
-83.4443
 20
33.7846
 30
0.0
 10
-83.4443
 20
33.7846
 30
0.0
 10
-83.4443
 20
33.7846
 30
0.0
 10
-83.4443
 20
33.6027
 30
0.0
 10
-83.4443
 20
33.6027
 30
0.0
 10
-83.4443
 20
33.6027
 30
0.0
 10
-83.3505
 20
33.7422
 30
0.0
 10
-83.2147
 20
33.8118
 30
0.0
 10
-83.0373
 20
33.8118
 30
0.0
 10
-83.0373
 20
33.8118
 30
0.0
 10
-82.9599
 20
33.8118
 30
0.0
 10
-82.8891
 20
33.7978
 30
0.0
 10
-82.8245
 20
33.7702
 30
0.0
 10
-82.8245
 20
33.7702
 30
0.0
 10
-82.7599
 20
33.7426
 30
0.0
 10
-82.7113
 20
33.706
 30
0.0
 10
-82.6792
 20
33.6611
 30
0.0
 10
-82.6792
 20
33.6611
 30
0.0
 10
-82.6471
 20
33.6163
 30
0.0
 10
-82.6245
 20
33.5628
 30
0.0
 10
-82.6117
 20
33.501
 30
0.0
 10
-82.6117
 20
33.501
 30
0.0
 10
-82.6039
 20
33.4607
 30
0.0
 10
-82.5998
 20
33.3903
 30
0.0
 10
-82.5998
 20
33.2899
 30
0.0
 10
-82.5998
 20
33.2899
 30
0.0
 10
-82.5998
 20
33.2899
 30
0.0
 10
-82.5998
 20
32.503
 30
0.0
 10
-82.5998
 20
32.503
 30
0.0
 10
-82.5998
 20
32.503
 30
0.0
 10
-82.5998
 20
32.503
 30
0.0
 10
-82.8171
 20
32.503
 30
0.0
 10
-82.8171
 20
32.503
 30
0.0
 10
-82.8171
 20
32.503
 30
0.0
 10
-82.8171
 20
32.503
 30
0.0
 10
-82.8171
 20
33.2817
 30
0.0
 10
-82.8171
 20
33.2817
 30
0.0
 10
-82.8171
 20
33.2817
 30
0.0
 10
-82.8171
 20
33.3702
 30
0.0
 10
-82.8253
 20
33.4364
 30
0.0
 10
-82.8422
 20
33.4801
 30
0.0
 10
-82.8422
 20
33.4801
 30
0.0
 10
-82.8591
 20
33.5237
 30
0.0
 10
-82.8891
 20
33.5587
 30
0.0
 10
-82.9319
 20
33.585
 30
0.0
 10
-82.9319
 20
33.585
 30
0.0
 10
-82.9747
 20
33.6109
 30
0.0
 10
-83.0254
 20
33.6241
 30
0.0
 10
-83.083
 20
33.6241
 30
0.0
 10
-83.083
 20
33.6241
 30
0.0
 10
-83.1752
 20
33.6241
 30
0.0
 10
-83.2546
 20
33.5949
 30
0.0
 10
-83.3217
 20
33.536
 30
0.0
 10
-83.3217
 20
33.536
 30
0.0
 10
-83.3888
 20
33.4776
 30
0.0
 10
-83.4221
 20
33.3661
 30
0.0
 10
-83.4221
 20
33.2023
 30
0.0
 10
-83.4221
 20
33.2023
 30
0.0
 10
-83.4221
 20
33.2023
 30
0.0
 10
-83.4221
 20
32.503
 30
0.0
 10
-83.4221
 20
32.503
 30
0.0
 10
-83.4221
 20
32.503
 30
0.0
 10
-83.4221
 20
32.503
 30
0.0
 10
-83.6394
 20
32.503
 30
0.0
 10
-83.6394
 20
32.503
 30
0.0
  0
SPLINE
  5
B2
330
1F
100
AcDbEntity
  8
0
 62
     1
100
AcDbSpline
210
0.0
220
0.0
230
1.0
 70
    11
 71
     3
 72
    88
 73
    84
 74
     0
 42
0.000000001
 43
0.0000000001
 40
0.0
 40
0.0
 40
0.0
 40
0.0
 40
0.0454545454545455
 40
0.0454545454545455
 40
0.0454545454545455
 40
0.0454545454545455
 40
0.0909090909090909
 40
0.0909090909090909
 40
0.0909090909090909
 40
0.0909090909090909
 40
0.1363636363636364
 40
0.1363636363636364
 40
0.1363636363636364
 40
0.1363636363636364
 40
0.1818181818181818
 40
0.1818181818181818
 40
0.1818181818181818
 40
0.1818181818181818
 40
0.2272727272727273
 40
0.2272727272727273
 40
0.2272727272727273
 40
0.2272727272727273
 40
0.2727272727272727
 40
0.2727272727272727
 40
0.2727272727272727
 40
0.2727272727272727
 40
0.3181818181818182
 40
0.3181818181818182
 40
0.3181818181818182
 40
0.3181818181818182
 40
0.3636363636363636
 40
0.3636363636363636
 40
0.3636363636363636
 40
0.3636363636363636
 40
0.4090909090909091
 40
0.4090909090909091
 40
0.4090909090909091
 40
0.4090909090909091
 40
0.4545454545454545
 40
0.4545454545454545
 40
0.4545454545454545
 40
0.4545454545454545
 40
0.5
 40
0.5
 40
0.5
 40
0.5
 40
0.5454545454545454
 40
0.5454545454545454
 40
0.5454545454545454
 40
0.5454545454545454
 40
0.5909090909090909
 40
0.5909090909090909
 40
0.5909090909090909
 40
0.5909090909090909
 40
0.6363636363636364
 40
0.6363636363636364
 40
0.6363636363636364
 40
0.6363636363636364
 40
0.6818181818181818
 40
0.6818181818181818
 40
0.6818181818181818
 40
0.6818181818181818
 40
0.7272727272727273
 40
0.7272727272727273
 40
0.7272727272727273
 40
0.7272727272727273
 40
0.7727272727272727
 40
0.7727272727272727
 40
0.7727272727272727
 40
0.7727272727272727
 40
0.8181818181818182
 40
0.8181818181818182
 40
0.8181818181818182
 40
0.8181818181818182
 40
0.8636363636363636
 40
0.8636363636363636
 40
0.8636363636363636
 40
0.8636363636363636
 40
0.9090909090909091
 40
0.9090909090909091
 40
0.9090909090909091
 40
0.9090909090909091
 40
1.0
 40
1.0
 40
1.0
 40
1.0
 10
-82.3059
 20
32.3968
 30
0.0
 10
-82.3059
 20
32.3968
 30
0.0
 10
-82.096
 20
32.3672
 30
0.0
 10
-82.096
 20
32.3672
 30
0.0
 10
-82.096
 20
32.3672
 30
0.0
 10
-82.0874
 20
32.3022
 30
0.0
 10
-82.0627
 20
32.2548
 30
0.0
 10
-82.0224
 20
32.2248
 30
0.0
 10
-82.0224
 20
32.2248
 30
0.0
 10
-81.9685
 20
32.1849
 30
0.0
 10
-81.8948
 20
32.1647
 30
0.0
 10
-81.8014
 20
32.1647
 30
0.0
 10
-81.8014
 20
32.1647
 30
0.0
 10
-81.7009
 20
32.1647
 30
0.0
 10
-81.6232
 20
32.1849
 30
0.0
 10
-81.5684
 20
32.2248
 30
0.0
 10
-81.5684
 20
32.2248
 30
0.0
 10
-81.5137
 20
32.2647
 30
0.0
 10
-81.4766
 20
32.3211
 30
0.0
 10
-81.4573
 20
32.3931
 30
0.0
 10
-81.4573
 20
32.3931
 30
0.0
 10
-81.4462
 20
32.4371
 30
0.0
 10
-81.4408
 20
32.5298
 30
0.0
 10
-81.4417
 20
32.6709
 30
0.0
 10
-81.4417
 20
32.6709
 30
0.0
 10
-81.5367
 20
32.559
 30
0.0
 10
-81.6548
 20
32.503
 30
0.0
 10
-81.7964
 20
32.503
 30
0.0
 10
-81.7964
 20
32.503
 30
0.0
 10
-81.9726
 20
32.503
 30
0.0
 10
-82.1092
 20
32.5664
 30
0.0
 10
-82.2055
 20
32.6936
 30
0.0
 10
-82.2055
 20
32.6936
 30
0.0
 10
-82.3022
 20
32.8203
 30
0.0
 10
-82.3504
 20
32.9726
 30
0.0
 10
-82.3504
 20
33.15
 30
0.0
 10
-82.3504
 20
33.15
 30
0.0
 10
-82.3504
 20
33.2722
 30
0.0
 10
-82.3282
 20
33.385
 30
0.0
 10
-82.2841
 20
33.4883
 30
0.0
 10
-82.2841
 20
33.4883
 30
0.0
 10
-82.2401
 20
33.5916
 30
0.0
 10
-82.1759
 20
33.671
 30
0.0
 10
-82.0919
 20
33.7274
 30
0.0
 10
-82.0919
 20
33.7274
 30
0.0
 10
-82.008
 20
33.7838
 30
0.0
 10
-81.9092
 20
33.8118
 30
0.0
 10
-81.7956
 20
33.8118
 30
0.0
 10
-81.7956
 20
33.8118
 30
0.0
 10
-81.6446
 20
33.8118
 30
0.0
 10
-81.5198
 20
33.75
 30
0.0
 10
-81.4219
 20
33.6266
 30
0.0
 10
-81.4219
 20
33.6266
 30
0.0
 10
-81.4219
 20
33.6266
 30
0.0
 10
-81.4219
 20
33.7846
 30
0.0
 10
-81.4219
 20
33.7846
 30
0.0
 10
-81.4219
 20
33.7846
 30
0.0
 10
-81.4219
 20
33.7846
 30
0.0
 10
-81.2219
 20
33.7846
 30
0.0
 10
-81.2219
 20
33.7846
 30
0.0
 10
-81.2219
 20
33.7846
 30
0.0
 10
-81.2219
 20
33.7846
 30
0.0
 10
-81.2219
 20
32.6779
 30
0.0
 10
-81.2219
 20
32.6779
 30
0.0
 10
-81.2219
 20
32.6779
 30
0.0
 10
-81.2219
 20
32.4783
 30
0.0
 10
-81.242
 20
32.3371
 30
0.0
 10
-81.2828
 20
32.254
 30
0.0
 10
-81.2828
 20
32.254
 30
0.0
 10
-81.3231
 20
32.1709
 30
0.0
 10
-81.3877
 20
32.105
 30
0.0
 10
-81.4754
 20
32.0569
 30
0.0
 10
-81.4754
 20
32.0569
 30
0.0
 10
-81.5635
 20
32.0087
 30
0.0
 10
-81.6717
 20
31.9844
 30
0.0
 10
-81.8001
 20
31.9844
 30
0.0
 10
-81.8001
 20
31.9844
 30
0.0
 10
-81.9528
 20
31.9844
 30
0.0
 10
-82.0759
 20
32.0186
 30
0.0
 10
-82.1697
 20
32.0873
 30
0.0
 10
-82.1697
 20
32.0873
 30
0.0
 10
-82.264
 20
32.1556
 30
0.0
 10
-82.3092
 20
32.2589
 30
0.0
 10
-82.3059
 20
32.3968
 30
0.0
  0
SPLINE
  5
B3
330
1F
100
AcDbEntity
  8
0
 62
     1
100
AcDbSpline
210
0.0
220
0.0
230
1.0
 70
    11
 71
     3
 72
    36
 73
    32
 74
     0
 42
0.000000001
 43
0.0000000001
 40
0.0
 40
0.0
 40
0.0
 40
0.0
 40
0.1111111111111111
 40
0.1111111111111111
 40
0.1111111111111111
 40
0.1111111111111111
 40
0.2222222222222222
 40
0.2222222222222222
 40
0.2222222222222222
 40
0.2222222222222222
 40
0.3333333333333333
 40
0.3333333333333333
 40
0.3333333333333333
 40
0.3333333333333333
 40
0.4444444444444444
 40
0.4444444444444444
 40
0.4444444444444444
 40
0.4444444444444444
 40
0.5555555555555556
 40
0.5555555555555556
 40
0.5555555555555556
 40
0.5555555555555556
 40
0.6666666666666666
 40
0.6666666666666666
 40
0.6666666666666666
 40
0.6666666666666666
 40
0.7777777777777778
 40
0.7777777777777778
 40
0.7777777777777778
 40
0.7777777777777778
 40
1.0
 40
1.0
 40
1.0
 40
1.0
 10
-82.1281
 20
33.1656
 30
0.0
 10
-82.1281
 20
32.9981
 30
0.0
 10
-82.0948
 20
32.8759
 30
0.0
 10
-82.0281
 20
32.7989
 30
0.0
 10
-82.0281
 20
32.7989
 30
0.0
 10
-81.961
 20
32.722
 30
0.0
 10
-81.8775
 20
32.6833
 30
0.0
 10
-81.7771
 20
32.6833
 30
0.0
 10
-81.7771
 20
32.6833
 30
0.0
 10
-81.6771
 20
32.6833
 30
0.0
 10
-81.5935
 20
32.7215
 30
0.0
 10
-81.5256
 20
32.7981
 30
0.0
 10
-81.5256
 20
32.7981
 30
0.0
 10
-81.4581
 20
32.8746
 30
0.0
 10
-81.4244
 20
32.9948
 30
0.0
 10
-81.4244
 20
33.1586
 30
0.0
 10
-81.4244
 20
33.1586
 30
0.0
 10
-81.4244
 20
33.315
 30
0.0
 10
-81.4593
 20
33.4331
 30
0.0
 10
-81.5289
 20
33.5126
 30
0.0
 10
-81.5289
 20
33.5126
 30
0.0
 10
-81.5985
 20
33.592
 30
0.0
 10
-81.6824
 20
33.6315
 30
0.0
 10
-81.7804
 20
33.6315
 30
0.0
 10
-81.7804
 20
33.6315
 30
0.0
 10
-81.8771
 20
33.6315
 30
0.0
 10
-81.959
 20
33.5924
 30
0.0
 10
-82.0269
 20
33.5142
 30
0.0
 10
-82.0269
 20
33.5142
 30
0.0
 10
-82.0944
 20
33.436
 30
0.0
 10
-82.1281
 20
33.32
 30
0.0
 10
-82.1281
 20
33.1656
 30
0.0
  0
SPLINE
  5
B4
330
1F
100
AcDbEntity
  8
0
 62
     1
100
AcDbSpline
210
0.0
220
0.0
230
1.0
 70
    11
 71
     3
 72
    64
 73
    60
 74
     0
 42
0.000000001
 43
0.0000000001
 40
0.0
 40
0.0
 40
0.0
 40
0.0
 40
0.0625
 40
0.0625
 40
0.0625
 40
0.0625
 40
0.125
 40
0.125
 40
0.125
 40
0.125
 40
0.1875
 40
0.1875
 40
0.1875
 40
0.1875
 40
0.25
 40
0.25
 40
0.25
 40
0.25
 40
0.3125
 40
0.3125
 40
0.3125
 40
0.3125
 40
0.375
 40
0.375
 40
0.375
 40
0.375
 40
0.4375
 40
0.4375
 40
0.4375
 40
0.4375
 40
0.5
 40
0.5
 40
0.5
 40
0.5
 40
0.5625
 40
0.5625
 40
0.5625
 40
0.5625
 40
0.625
 40
0.625
 40
0.625
 40
0.625
 40
0.6875
 40
0.6875
 40
0.6875
 40
0.6875
 40
0.75
 40
0.75
 40
0.75
 40
0.75
 40
0.8125
 40
0.8125
 40
0.8125
 40
0.8125
 40
0.875
 40
0.875
 40
0.875
 40
0.875
 40
1.0
 40
1.0
 40
1.0
 40
1.0
 10
-80.0185
 20
32.9179
 30
0.0
 10
-80.0185
 20
32.9179
 30
0.0
 10
-79.7937
 20
32.8882
 30
0.0
 10
-79.7937
 20
32.8882
 30
0.0
 10
-79.7937
 20
32.8882
 30
0.0
 10
-79.8287
 20
32.7578
 30
0.0
 10
-79.8942
 20
32.6561
 30
0.0
 10
-79.9896
 20
32.5841
 30
0.0
 10
-79.9896
 20
32.5841
 30
0.0
 10
-80.0851
 20
32.5121
 30
0.0
 10
-80.2069
 20
32.4758
 30
0.0
 10
-80.3555
 20
32.4758
 30
0.0
 10
-80.3555
 20
32.4758
 30
0.0
 10
-80.5424
 20
32.4758
 30
0.0
 10
-80.6905
 20
32.5335
 30
0.0
 10
-80.8
 20
32.6487
 30
0.0
 10
-80.8
 20
32.6487
 30
0.0
 10
-80.9095
 20
32.7635
 30
0.0
 10
-80.9642
 20
32.9253
 30
0.0
 10
-80.9642
 20
33.1331
 30
0.0
 10
-80.9642
 20
33.1331
 30
0.0
 10
-80.9642
 20
33.3479
 30
0.0
 10
-80.9091
 20
33.515
 30
0.0
 10
-80.7984
 20
33.6336
 30
0.0
 10
-80.7984
 20
33.6336
 30
0.0
 10
-80.6877
 20
33.7525
 30
0.0
 10
-80.544
 20
33.8118
 30
0.0
 10
-80.3675
 20
33.8118
 30
0.0
 10
-80.3675
 20
33.8118
 30
0.0
 10
-80.1967
 20
33.8118
 30
0.0
 10
-80.0571
 20
33.7538
 30
0.0
 10
-79.9489
 20
33.6373
 30
0.0
 10
-79.9489
 20
33.6373
 30
0.0
 10
-79.8407
 20
33.5208
 30
0.0
 10
-79.7863
 20
33.357
 30
0.0
 10
-79.7863
 20
33.1459
 30
0.0
 10
-79.7863
 20
33.1459
 30
0.0
 10
-79.7863
 20
33.1331
 30
0.0
 10
-79.7867
 20
33.1138
 30
0.0
 10
-79.7876
 20
33.0882
 30
0.0
 10
-79.7876
 20
33.0882
 30
0.0
 10
-79.7876
 20
33.0882
 30
0.0
 10
-80.742
 20
33.0882
 30
0.0
 10
-80.742
 20
33.0882
 30
0.0
 10
-80.742
 20
33.0882
 30
0.0
 10
-80.7338
 20
32.9479
 30
0.0
 10
-80.6942
 20
32.8401
 30
0.0
 10
-80.6226
 20
32.7656
 30
0.0
 10
-80.6226
 20
32.7656
 30
0.0
 10
-80.5514
 20
32.6911
 30
0.0
 10
-80.4621
 20
32.6536
 30
0.0
 10
-80.3555
 20
32.6536
 30
0.0
 10
-80.3555
 20
32.6536
 30
0.0
 10
-80.2761
 20
32.6536
 30
0.0
 10
-80.2082
 20
32.6746
 30
0.0
 10
-80.1522
 20
32.7166
 30
0.0
 10
-80.1522
 20
32.7166
 30
0.0
 10
-80.0958
 20
32.7586
 30
0.0
 10
-80.0514
 20
32.8257
 30
0.0
 10
-80.0185
 20
32.9179
 30
0.0
  0
SPLINE
  5
B5
330
1F
100
AcDbEntity
  8
0
 62
     1
100
AcDbSpline
210
0.0
220
0.0
230
1.0
 70
    11
 71
     3
 72
    24
 73
    20
 74
     0
 42
0.000000001
 43
0.0000000001
 40
0.0
 40
0.0
 40
0.0
 40
0.0
 40
0.1666666666666667
 40
0.1666666666666667
 40
0.1666666666666667
 40
0.1666666666666667
 40
0.3333333333333333
 40
0.3333333333333333
 40
0.3333333333333333
 40
0.3333333333333333
 40
0.5
 40
0.5
 40
0.5
 40
0.5
 40
0.6666666666666666
 40
0.6666666666666666
 40
0.6666666666666666
 40
0.6666666666666666
 40
1.0
 40
1.0
 40
1.0
 40
1.0
 10
-80.7296
 20
33.266
 30
0.0
 10
-80.7296
 20
33.266
 30
0.0
 10
-80.016
 20
33.266
 30
0.0
 10
-80.016
 20
33.266
 30
0.0
 10
-80.016
 20
33.266
 30
0.0
 10
-80.0254
 20
33.3739
 30
0.0
 10
-80.053
 20
33.4545
 30
0.0
 10
-80.0979
 20
33.5085
 30
0.0
 10
-80.0979
 20
33.5085
 30
0.0
 10
-80.1666
 20
33.592
 30
0.0
 10
-80.2563
 20
33.634
 30
0.0
 10
-80.3662
 20
33.634
 30
0.0
 10
-80.3662
 20
33.634
 30
0.0
 10
-80.4658
 20
33.634
 30
0.0
 10
-80.5494
 20
33.6006
 30
0.0
 10
-80.6173
 20
33.534
 30
0.0
 10
-80.6173
 20
33.534
 30
0.0
 10
-80.6848
 20
33.4673
 30
0.0
 10
-80.7222
 20
33.378
 30
0.0
 10
-80.7296
 20
33.266
 30
0.0
  0
SPLINE
  5
B6
330
1F
100
AcDbEntity
  8
0
 62
     1
100
AcDbSpline
210
0.0
220
0.0
230
1.0
 70
    11
 71
     3
 72
    20
 73
    16
 74
     0
 42
0.000000001
 43
0.0000000001
 40
0.0
 40
0.0
 40
0.0
 40
0.0
 40
0.2
 40
0.2
 40
0.2
 40
0.2
 40
0.4
 40
0.4
 40
0.4
 40
0.4
 40
0.6
 40
0.6
 40
0.6
 40
0.6
 40
1.0
 40
1.0
 40
1.0
 40
1.0
 10
-80.5469
 20
33.9427
 30
0.0
 10
-80.5469
 20
33.9427
 30
0.0
 10
-80.3889
 20
34.281
 30
0.0
 10
-80.3889
 20
34.281
 30
0.0
 10
-80.3889
 20
34.281
 30
0.0
 10
-80.3889
 20
34.281
 30
0.0
 10
-80.1024
 20
34.281
 30
0.0
 10
-80.1024
 20
34.281
 30
0.0
 10
-80.1024
 20
34.281
 30
0.0
 10
-80.1024
 20
34.281
 30
0.0
 10
-80.3666
 20
33.9427
 30
0.0
 10
-80.3666
 20
33.9427
 30
0.0
 10
-80.3666
 20
33.9427
 30
0.0
 10
-80.3666
 20
33.9427
 30
0.0
 10
-80.5469
 20
33.9427
 30
0.0
 10
-80.5469
 20
33.9427
 30
0.0
  0
SPLINE
  5
B7
330
1F
100
AcDbEntity
  8
0
 62
     1
100
AcDbSpline
210
0.0
220
0.0
230
1.0
 70
    11
 71
     3
 72
    76
 73
    72
 74
     0
 42
0.000000001
 43
0.0000000001
 40
0.0
 40
0.0
 40
0.0
 40
0.0
 40
0.0526315789473684
 40
0.0526315789473684
 40
0.0526315789473684
 40
0.0526315789473684
 40
0.1052631578947368
 40
0.1052631578947368
 40
0.1052631578947368
 40
0.1052631578947368
 40
0.1578947368421053
 40
0.1578947368421053
 40
0.1578947368421053
 40
0.1578947368421053
 40
0.2105263157894737
 40
0.2105263157894737
 40
0.2105263157894737
 40
0.2105263157894737
 40
0.2631578947368421
 40
0.2631578947368421
 40
0.2631578947368421
 40
0.2631578947368421
 40
0.3157894736842105
 40
0.3157894736842105
 40
0.3157894736842105
 40
0.3157894736842105
 40
0.3684210526315789
 40
0.3684210526315789
 40
0.3684210526315789
 40
0.3684210526315789
 40
0.4210526315789473
 40
0.4210526315789473
 40
0.4210526315789473
 40
0.4210526315789473
 40
0.4736842105263158
 40
0.4736842105263158
 40
0.4736842105263158
 40
0.4736842105263158
 40
0.5263157894736842
 40
0.5263157894736842
 40
0.5263157894736842
 40
0.5263157894736842
 40
0.5789473684210527
 40
0.5789473684210527
 40
0.5789473684210527
 40
0.5789473684210527
 40
0.631578947368421
 40
0.631578947368421
 40
0.631578947368421
 40
0.631578947368421
 40
0.6842105263157895
 40
0.6842105263157895
 40
0.6842105263157895
 40
0.6842105263157895
 40
0.7368421052631579
 40
0.7368421052631579
 40
0.7368421052631579
 40
0.7368421052631579
 40
0.7894736842105263
 40
0.7894736842105263
 40
0.7894736842105263
 40
0.7894736842105263
 40
0.8421052631578947
 40
0.8421052631578947
 40
0.8421052631578947
 40
0.8421052631578947
 40
0.8947368421052632
 40
0.8947368421052632
 40
0.8947368421052632
 40
0.8947368421052632
 40
1.0
 40
1.0
 40
1.0
 40
1.0
 10
-79.5192
 20
32.503
 30
0.0
 10
-79.5192
 20
32.503
 30
0.0
 10
-79.5192
 20
33.7846
 30
0.0
 10
-79.5192
 20
33.7846
 30
0.0
 10
-79.5192
 20
33.7846
 30
0.0
 10
-79.5192
 20
33.7846
 30
0.0
 10
-79.3241
 20
33.7846
 30
0.0
 10
-79.3241
 20
33.7846
 30
0.0
 10
-79.3241
 20
33.7846
 30
0.0
 10
-79.3241
 20
33.7846
 30
0.0
 10
-79.3241
 20
33.6027
 30
0.0
 10
-79.3241
 20
33.6027
 30
0.0
 10
-79.3241
 20
33.6027
 30
0.0
 10
-79.2303
 20
33.7422
 30
0.0
 10
-79.0945
 20
33.8118
 30
0.0
 10
-78.9171
 20
33.8118
 30
0.0
 10
-78.9171
 20
33.8118
 30
0.0
 10
-78.8397
 20
33.8118
 30
0.0
 10
-78.7689
 20
33.7978
 30
0.0
 10
-78.7043
 20
33.7702
 30
0.0
 10
-78.7043
 20
33.7702
 30
0.0
 10
-78.6397
 20
33.7426
 30
0.0
 10
-78.5911
 20
33.706
 30
0.0
 10
-78.559
 20
33.6611
 30
0.0
 10
-78.559
 20
33.6611
 30
0.0
 10
-78.5269
 20
33.6163
 30
0.0
 10
-78.5043
 20
33.5628
 30
0.0
 10
-78.4915
 20
33.501
 30
0.0
 10
-78.4915
 20
33.501
 30
0.0
 10
-78.4837
 20
33.4607
 30
0.0
 10
-78.4796
 20
33.3903
 30
0.0
 10
-78.4796
 20
33.2899
 30
0.0
 10
-78.4796
 20
33.2899
 30
0.0
 10
-78.4796
 20
33.2899
 30
0.0
 10
-78.4796
 20
32.503
 30
0.0
 10
-78.4796
 20
32.503
 30
0.0
 10
-78.4796
 20
32.503
 30
0.0
 10
-78.4796
 20
32.503
 30
0.0
 10
-78.6969
 20
32.503
 30
0.0
 10
-78.6969
 20
32.503
 30
0.0
 10
-78.6969
 20
32.503
 30
0.0
 10
-78.6969
 20
32.503
 30
0.0
 10
-78.6969
 20
33.2817
 30
0.0
 10
-78.6969
 20
33.2817
 30
0.0
 10
-78.6969
 20
33.2817
 30
0.0
 10
-78.6969
 20
33.3702
 30
0.0
 10
-78.7051
 20
33.4364
 30
0.0
 10
-78.722
 20
33.4801
 30
0.0
 10
-78.722
 20
33.4801
 30
0.0
 10
-78.7389
 20
33.5237
 30
0.0
 10
-78.7689
 20
33.5587
 30
0.0
 10
-78.8117
 20
33.585
 30
0.0
 10
-78.8117
 20
33.585
 30
0.0
 10
-78.8545
 20
33.6109
 30
0.0
 10
-78.9052
 20
33.6241
 30
0.0
 10
-78.9628
 20
33.6241
 30
0.0
 10
-78.9628
 20
33.6241
 30
0.0
 10
-79.055
 20
33.6241
 30
0.0
 10
-79.1344
 20
33.5949
 30
0.0
 10
-79.2015
 20
33.536
 30
0.0
 10
-79.2015
 20
33.536
 30
0.0
 10
-79.2686
 20
33.4776
 30
0.0
 10
-79.3019
 20
33.3661
 30
0.0
 10
-79.3019
 20
33.2023
 30
0.0
 10
-79.3019
 20
33.2023
 30
0.0
 10
-79.3019
 20
33.2023
 30
0.0
 10
-79.3019
 20
32.503
 30
0.0
 10
-79.3019
 20
32.503
 30
0.0
 10
-79.3019
 20
32.503
 30
0.0
 10
-79.3019
 20
32.503
 30
0.0
 10
-79.5192
 20
32.503
 30
0.0
 10
-79.5192
 20
32.503
 30
0.0
  0
SPLINE
  5
B8
330
1F
100
AcDbEntity
  8
0
 62
     1
100
AcDbSpline
210
0.0
220
0.0
230
1.0
 70
    11
 71
     3
 72
    20
 73
    16
 74
     0
 42
0.000000001
 43
0.0000000001
 40
0.0
 40
0.0
 40
0.0
 40
0.0
 40
0.2
 40
0.2
 40
0.2
 40
0.2
 40
0.4
 40
0.4
 40
0.4
 40
0.4
 40
0.6
 40
0.6
 40
0.6
 40
0.6
 40
1.0
 40
1.0
 40
1.0
 40
1.0
 10
-78.1458
 20
34.0242
 30
0.0
 10
-78.1458
 20
34.0242
 30
0.0
 10
-78.1458
 20
34.2711
 30
0.0
 10
-78.1458
 20
34.2711
 30
0.0
 10
-78.1458
 20
34.2711
 30
0.0
 10
-78.1458
 20
34.2711
 30
0.0
 10
-77.9285
 20
34.2711
 30
0.0
 10
-77.9285
 20
34.2711
 30
0.0
 10
-77.9285
 20
34.2711
 30
0.0
 10
-77.9285
 20
34.2711
 30
0.0
 10
-77.9285
 20
34.0242
 30
0.0
 10
-77.9285
 20
34.0242
 30
0.0
 10
-77.9285
 20
34.0242
 30
0.0
 10
-77.9285
 20
34.0242
 30
0.0
 10
-78.1458
 20
34.0242
 30
0.0
 10
-78.1458
 20
34.0242
 30
0.0
  0
SPLINE
  5
B9
330
1F
100
AcDbEntity
  8
0
 62
     1
100
AcDbSpline
210
0.0
220
0.0
230
1.0
 70
    11
 71
     3
 72
    20
 73
    16
 74
     0
 42
0.000000001
 43
0.0000000001
 40
0.0
 40
0.0
 40
0.0
 40
0.0
 40
0.2
 40
0.2
 40
0.2
 40
0.2
 40
0.4
 40
0.4
 40
0.4
 40
0.4
 40
0.6
 40
0.6
 40
0.6
 40
0.6
 40
1.0
 40
1.0
 40
1.0
 40
1.0
 10
-78.1458
 20
32.503
 30
0.0
 10
-78.1458
 20
32.503
 30
0.0
 10
-78.1458
 20
33.7846
 30
0.0
 10
-78.1458
 20
33.7846
 30
0.0
 10
-78.1458
 20
33.7846
 30
0.0
 10
-78.1458
 20
33.7846
 30
0.0
 10
-77.9285
 20
33.7846
 30
0.0
 10
-77.9285
 20
33.7846
 30
0.0
 10
-77.9285
 20
33.7846
 30
0.0
 10
-77.9285
 20
33.7846
 30
0.0
 10
-77.9285
 20
32.503
 30
0.0
 10
-77.9285
 20
32.503
 30
0.0
 10
-77.9285
 20
32.503
 30
0.0
 10
-77.9285
 20
32.503
 30
0.0
 10
-78.1458
 20
32.503
 30
0.0
 10
-78.1458
 20
32.503
 30
0.0
  0
SPLINE
  5
BA
330
1F
100
AcDbEntity
  8
0
 62
     1
100
AcDbSpline
210
0.0
220
0.0
230
1.0
 70
    11
 71
     3
 72
    64
 73
    60
 74
     0
 42
0.000000001
 43
0.0000000001
 40
0.0
 40
0.0
 40
0.0
 40
0.0
 40
0.0625
 40
0.0625
 40
0.0625
 40
0.0625
 40
0.125
 40
0.125
 40
0.125
 40
0.125
 40
0.1875
 40
0.1875
 40
0.1875
 40
0.1875
 40
0.25
 40
0.25
 40
0.25
 40
0.25
 40
0.3125
 40
0.3125
 40
0.3125
 40
0.3125
 40
0.375
 40
0.375
 40
0.375
 40
0.375
 40
0.4375
 40
0.4375
 40
0.4375
 40
0.4375
 40
0.5
 40
0.5
 40
0.5
 40
0.5
 40
0.5625
 40
0.5625
 40
0.5625
 40
0.5625
 40
0.625
 40
0.625
 40
0.625
 40
0.625
 40
0.6875
 40
0.6875
 40
0.6875
 40
0.6875
 40
0.75
 40
0.75
 40
0.75
 40
0.75
 40
0.8125
 40
0.8125
 40
0.8125
 40
0.8125
 40
0.875
 40
0.875
 40
0.875
 40
0.875
 40
1.0
 40
1.0
 40
1.0
 40
1.0
 10
-76.7231
 20
32.9179
 30
0.0
 10
-76.7231
 20
32.9179
 30
0.0
 10
-76.4983
 20
32.8882
 30
0.0
 10
-76.4983
 20
32.8882
 30
0.0
 10
-76.4983
 20
32.8882
 30
0.0
 10
-76.5333
 20
32.7578
 30
0.0
 10
-76.5988
 20
32.6561
 30
0.0
 10
-76.6942
 20
32.5841
 30
0.0
 10
-76.6942
 20
32.5841
 30
0.0
 10
-76.7897
 20
32.5121
 30
0.0
 10
-76.9115
 20
32.4758
 30
0.0
 10
-77.0601
 20
32.4758
 30
0.0
 10
-77.0601
 20
32.4758
 30
0.0
 10
-77.247
 20
32.4758
 30
0.0
 10
-77.3951
 20
32.5335
 30
0.0
 10
-77.5046
 20
32.6487
 30
0.0
 10
-77.5046
 20
32.6487
 30
0.0
 10
-77.6141
 20
32.7635
 30
0.0
 10
-77.6688
 20
32.9253
 30
0.0
 10
-77.6688
 20
33.1331
 30
0.0
 10
-77.6688
 20
33.1331
 30
0.0
 10
-77.6688
 20
33.3479
 30
0.0
 10
-77.6137
 20
33.515
 30
0.0
 10
-77.503
 20
33.6336
 30
0.0
 10
-77.503
 20
33.6336
 30
0.0
 10
-77.3923
 20
33.7525
 30
0.0
 10
-77.2486
 20
33.8118
 30
0.0
 10
-77.0721
 20
33.8118
 30
0.0
 10
-77.0721
 20
33.8118
 30
0.0
 10
-76.9013
 20
33.8118
 30
0.0
 10
-76.7617
 20
33.7538
 30
0.0
 10
-76.6535
 20
33.6373
 30
0.0
 10
-76.6535
 20
33.6373
 30
0.0
 10
-76.5453
 20
33.5208
 30
0.0
 10
-76.4909
 20
33.357
 30
0.0
 10
-76.4909
 20
33.1459
 30
0.0
 10
-76.4909
 20
33.1459
 30
0.0
 10
-76.4909
 20
33.1331
 30
0.0
 10
-76.4913
 20
33.1138
 30
0.0
 10
-76.4922
 20
33.0882
 30
0.0
 10
-76.4922
 20
33.0882
 30
0.0
 10
-76.4922
 20
33.0882
 30
0.0
 10
-77.4466
 20
33.0882
 30
0.0
 10
-77.4466
 20
33.0882
 30
0.0
 10
-77.4466
 20
33.0882
 30
0.0
 10
-77.4384
 20
32.9479
 30
0.0
 10
-77.3988
 20
32.8401
 30
0.0
 10
-77.3272
 20
32.7656
 30
0.0
 10
-77.3272
 20
32.7656
 30
0.0
 10
-77.256
 20
32.6911
 30
0.0
 10
-77.1667
 20
32.6536
 30
0.0
 10
-77.0601
 20
32.6536
 30
0.0
 10
-77.0601
 20
32.6536
 30
0.0
 10
-76.9807
 20
32.6536
 30
0.0
 10
-76.9128
 20
32.6746
 30
0.0
 10
-76.8568
 20
32.7166
 30
0.0
 10
-76.8568
 20
32.7166
 30
0.0
 10
-76.8004
 20
32.7586
 30
0.0
 10
-76.756
 20
32.8257
 30
0.0
 10
-76.7231
 20
32.9179
 30
0.0
  0
SPLINE
  5
BB
330
1F
100
AcDbEntity
  8
0
 62
     1
100
AcDbSpline
210
0.0
220
0.0
230
1.0
 70
    11
 71
     3
 72
    24
 73
    20
 74
     0
 42
0.000000001
 43
0.0000000001
 40
0.0
 40
0.0
 40
0.0
 40
0.0
 40
0.1666666666666667
 40
0.1666666666666667
 40
0.1666666666666667
 40
0.1666666666666667
 40
0.3333333333333333
 40
0.3333333333333333
 40
0.3333333333333333
 40
0.3333333333333333
 40
0.5
 40
0.5
 40
0.5
 40
0.5
 40
0.6666666666666666
 40
0.6666666666666666
 40
0.6666666666666666
 40
0.6666666666666666
 40
1.0
 40
1.0
 40
1.0
 40
1.0
 10
-77.4342
 20
33.266
 30
0.0
 10
-77.4342
 20
33.266
 30
0.0
 10
-76.7206
 20
33.266
 30
0.0
 10
-76.7206
 20
33.266
 30
0.0
 10
-76.7206
 20
33.266
 30
0.0
 10
-76.73
 20
33.3739
 30
0.0
 10
-76.7576
 20
33.4545
 30
0.0
 10
-76.8025
 20
33.5085
 30
0.0
 10
-76.8025
 20
33.5085
 30
0.0
 10
-76.8712
 20
33.592
 30
0.0
 10
-76.9609
 20
33.634
 30
0.0
 10
-77.0708
 20
33.634
 30
0.0
 10
-77.0708
 20
33.634
 30
0.0
 10
-77.1704
 20
33.634
 30
0.0
 10
-77.254
 20
33.6006
 30
0.0
 10
-77.3219
 20
33.534
 30
0.0
 10
-77.3219
 20
33.534
 30
0.0
 10
-77.3894
 20
33.4673
 30
0.0
 10
-77.4268
 20
33.378
 30
0.0
 10
-77.4342
 20
33.266
 30
0.0
  0
SPLINE
  5
BC
330
1F
100
AcDbEntity
  8
0
 62
     1
100
AcDbSpline
210
0.0
220
0.0
230
1.0
 70
    11
 71
     3
 72
    80
 73
    76
 74
     0
 42
0.000000001
 43
0.0000000001
 40
0.0
 40
0.0
 40
0.0
 40
0.0
 40
0.05
 40
0.05
 40
0.05
 40
0.05
 40
0.1
 40
0.1
 40
0.1
 40
0.1
 40
0.15
 40
0.15
 40
0.15
 40
0.15
 40
0.2
 40
0.2
 40
0.2
 40
0.2
 40
0.25
 40
0.25
 40
0.25
 40
0.25
 40
0.3
 40
0.3
 40
0.3
 40
0.3
 40
0.35
 40
0.35
 40
0.35
 40
0.35
 40
0.4
 40
0.4
 40
0.4
 40
0.4
 40
0.45
 40
0.45
 40
0.45
 40
0.45
 40
0.5
 40
0.5
 40
0.5
 40
0.5
 40
0.55
 40
0.55
 40
0.55
 40
0.55
 40
0.6
 40
0.6
 40
0.6
 40
0.6
 40
0.65
 40
0.65
 40
0.65
 40
0.65
 40
0.7
 40
0.7
 40
0.7
 40
0.7
 40
0.75
 40
0.75
 40
0.75
 40
0.75
 40
0.8
 40
0.8
 40
0.8
 40
0.8
 40
0.85
 40
0.85
 40
0.85
 40
0.85
 40
0.9
 40
0.9
 40
0.9
 40
0.9
 40
1.0
 40
1.0
 40
1.0
 40
1.0
 10
-75.3867
 20
32.503
 30
0.0
 10
-75.3867
 20
32.503
 30
0.0
 10
-75.3867
 20
32.6936
 30
0.0
 10
-75.3867
 20
32.6936
 30
0.0
 10
-75.3867
 20
32.6936
 30
0.0
 10
-75.4863
 20
32.5483
 30
0.0
 10
-75.6213
 20
32.4758
 30
0.0
 10
-75.7921
 20
32.4758
 30
0.0
 10
-75.7921
 20
32.4758
 30
0.0
 10
-75.8674
 20
32.4758
 30
0.0
 10
-75.9378
 20
32.4902
 30
0.0
 10
-76.0032
 20
32.5191
 30
0.0
 10
-76.0032
 20
32.5191
 30
0.0
 10
-76.0687
 20
32.5483
 30
0.0
 10
-76.1172
 20
32.5845
 30
0.0
 10
-76.1489
 20
32.6281
 30
0.0
 10
-76.1489
 20
32.6281
 30
0.0
 10
-76.1806
 20
32.6722
 30
0.0
 10
-76.2028
 20
32.7257
 30
0.0
 10
-76.2156
 20
32.789
 30
0.0
 10
-76.2156
 20
32.789
 30
0.0
 10
-76.2242
 20
32.8318
 30
0.0
 10
-76.2288
 20
32.8993
 30
0.0
 10
-76.2288
 20
32.9915
 30
0.0
 10
-76.2288
 20
32.9915
 30
0.0
 10
-76.2288
 20
32.9915
 30
0.0
 10
-76.2288
 20
33.7846
 30
0.0
 10
-76.2288
 20
33.7846
 30
0.0
 10
-76.2288
 20
33.7846
 30
0.0
 10
-76.2288
 20
33.7846
 30
0.0
 10
-76.0115
 20
33.7846
 30
0.0
 10
-76.0115
 20
33.7846
 30
0.0
 10
-76.0115
 20
33.7846
 30
0.0
 10
-76.0115
 20
33.7846
 30
0.0
 10
-76.0115
 20
33.0755
 30
0.0
 10
-76.0115
 20
33.0755
 30
0.0
 10
-76.0115
 20
33.0755
 30
0.0
 10
-76.0115
 20
32.9623
 30
0.0
 10
-76.0069
 20
32.8858
 30
0.0
 10
-75.9983
 20
32.8467
 30
0.0
 10
-75.9983
 20
32.8467
 30
0.0
 10
-75.9847
 20
32.7895
 30
0.0
 10
-75.9559
 20
32.745
 30
0.0
 10
-75.9114
 20
32.7125
 30
0.0
 10
-75.9114
 20
32.7125
 30
0.0
 10
-75.8674
 20
32.68
 30
0.0
 10
-75.8131
 20
32.6635
 30
0.0
 10
-75.748
 20
32.6635
 30
0.0
 10
-75.748
 20
32.6635
 30
0.0
 10
-75.683
 20
32.6635
 30
0.0
 10
-75.6221
 20
32.68
 30
0.0
 10
-75.5653
 20
32.7133
 30
0.0
 10
-75.5653
 20
32.7133
 30
0.0
 10
-75.5085
 20
32.7466
 30
0.0
 10
-75.4682
 20
32.7923
 30
0.0
 10
-75.4443
 20
32.8495
 30
0.0
 10
-75.4443
 20
32.8495
 30
0.0
 10
-75.4209
 20
32.9067
 30
0.0
 10
-75.4089
 20
32.9903
 30
0.0
 10
-75.4089
 20
33.0994
 30
0.0
 10
-75.4089
 20
33.0994
 30
0.0
 10
-75.4089
 20
33.0994
 30
0.0
 10
-75.4089
 20
33.7846
 30
0.0
 10
-75.4089
 20
33.7846
 30
0.0
 10
-75.4089
 20
33.7846
 30
0.0
 10
-75.4089
 20
33.7846
 30
0.0
 10
-75.1916
 20
33.7846
 30
0.0
 10
-75.1916
 20
33.7846
 30
0.0
 10
-75.1916
 20
33.7846
 30
0.0
 10
-75.1916
 20
33.7846
 30
0.0
 10
-75.1916
 20
32.503
 30
0.0
 10
-75.1916
 20
32.503
 30
0.0
 10
-75.1916
 20
32.503
 30
0.0
 10
-75.1916
 20
32.503
 30
0.0
 10
-75.3867
 20
32.503
 30
0.0
 10
-75.3867
 20
32.503
 30
0.0
  0
SPLINE
  5
BD
330
1F
100
AcDbEntity
  8
0
 62
     1
100
AcDbSpline
210
0.0
220
0.0
230
1.0
 70
    11
 71
     3
 72
    56
 73
    52
 74
     0
 42
0.000000001
 43
0.0000000001
 40
0.0
 40
0.0
 40
0.0
 40
0.0
 40
0.0714285714285714
 40
0.0714285714285714
 40
0.0714285714285714
 40
0.0714285714285714
 40
0.1428571428571428
 40
0.1428571428571428
 40
0.1428571428571428
 40
0.1428571428571428
 40
0.2142857142857143
 40
0.2142857142857143
 40
0.2142857142857143
 40
0.2142857142857143
 40
0.2857142857142857
 40
0.2857142857142857
 40
0.2857142857142857
 40
0.2857142857142857
 40
0.3571428571428572
 40
0.3571428571428572
 40
0.3571428571428572
 40
0.3571428571428572
 40
0.4285714285714285
 40
0.4285714285714285
 40
0.4285714285714285
 40
0.4285714285714285
 40
0.5
 40
0.5
 40
0.5
 40
0.5
 40
0.5714285714285714
 40
0.5714285714285714
 40
0.5714285714285714
 40
0.5714285714285714
 40
0.6428571428571429
 40
0.6428571428571429
 40
0.6428571428571429
 40
0.6428571428571429
 40
0.7142857142857143
 40
0.7142857142857143
 40
0.7142857142857143
 40
0.7142857142857143
 40
0.7857142857142857
 40
0.7857142857142857
 40
0.7857142857142857
 40
0.7857142857142857
 40
0.8571428571428571
 40
0.8571428571428571
 40
0.8571428571428571
 40
0.8571428571428571
 40
1.0
 40
1.0
 40
1.0
 40
1.0
 10
-74.8529
 20
32.503
 30
0.0
 10
-74.8529
 20
32.503
 30
0.0
 10
-74.8529
 20
33.7846
 30
0.0
 10
-74.8529
 20
33.7846
 30
0.0
 10
-74.8529
 20
33.7846
 30
0.0
 10
-74.8529
 20
33.7846
 30
0.0
 10
-74.6578
 20
33.7846
 30
0.0
 10
-74.6578
 20
33.7846
 30
0.0
 10
-74.6578
 20
33.7846
 30
0.0
 10
-74.6578
 20
33.7846
 30
0.0
 10
-74.6578
 20
33.5883
 30
0.0
 10
-74.6578
 20
33.5883
 30
0.0
 10
-74.6578
 20
33.5883
 30
0.0
 10
-74.608
 20
33.6793
 30
0.0
 10
-74.5619
 20
33.7393
 30
0.0
 10
-74.5195
 20
33.7682
 30
0.0
 10
-74.5195
 20
33.7682
 30
0.0
 10
-74.4771
 20
33.7974
 30
0.0
 10
-74.4306
 20
33.8118
 30
0.0
 10
-74.38
 20
33.8118
 30
0.0
 10
-74.38
 20
33.8118
 30
0.0
 10
-74.3067
 20
33.8118
 30
0.0
 10
-74.2322
 20
33.7887
 30
0.0
 10
-74.1565
 20
33.7431
 30
0.0
 10
-74.1565
 20
33.7431
 30
0.0
 10
-74.1565
 20
33.7431
 30
0.0
 10
-74.2339
 20
33.5426
 30
0.0
 10
-74.2339
 20
33.5426
 30
0.0
 10
-74.2339
 20
33.5426
 30
0.0
 10
-74.2866
 20
33.5723
 30
0.0
 10
-74.3393
 20
33.5871
 30
0.0
 10
-74.3919
 20
33.5871
 30
0.0
 10
-74.3919
 20
33.5871
 30
0.0
 10
-74.4393
 20
33.5871
 30
0.0
 10
-74.4817
 20
33.5727
 30
0.0
 10
-74.5191
 20
33.5443
 30
0.0
 10
-74.5191
 20
33.5443
 30
0.0
 10
-74.5566
 20
33.5159
 30
0.0
 10
-74.5833
 20
33.4764
 30
0.0
 10
-74.5994
 20
33.4257
 30
0.0
 10
-74.5994
 20
33.4257
 30
0.0
 10
-74.6236
 20
33.3488
 30
0.0
 10
-74.6356
 20
33.2644
 30
0.0
 10
-74.6356
 20
33.1726
 30
0.0
 10
-74.6356
 20
33.1726
 30
0.0
 10
-74.6356
 20
33.1726
 30
0.0
 10
-74.6356
 20
32.503
 30
0.0
 10
-74.6356
 20
32.503
 30
0.0
 10
-74.6356
 20
32.503
 30
0.0
 10
-74.6356
 20
32.503
 30
0.0
 10
-74.8529
 20
32.503
 30
0.0
 10
-74.8529
 20
32.503
 30
0.0
  0
SPLINE
  5
BE
330
1F
100
AcDbEntity
  8
0
 62
     1
100
AcDbSpline
210
0.0
220
0.0
230
1.0
 70
    11
 71
     3
 72
   136
 73
   132
 74
     0
 42
0.000000001
 43
0.0000000001
 40
0.0
 40
0.0
 40
0.0
 40
0.0
 40
0.0294117647058824
 40
0.0294117647058824
 40
0.0294117647058824
 40
0.0294117647058824
 40
0.0588235294117647
 40
0.0588235294117647
 40
0.0588235294117647
 40
0.0588235294117647
 40
0.0882352941176471
 40
0.0882352941176471
 40
0.0882352941176471
 40
0.0882352941176471
 40
0.1176470588235294
 40
0.1176470588235294
 40
0.1176470588235294
 40
0.1176470588235294
 40
0.1470588235294118
 40
0.1470588235294118
 40
0.1470588235294118
 40
0.1470588235294118
 40
0.1764705882352941
 40
0.1764705882352941
 40
0.1764705882352941
 40
0.1764705882352941
 40
0.2058823529411765
 40
0.2058823529411765
 40
0.2058823529411765
 40
0.2058823529411765
 40
0.2352941176470588
 40
0.2352941176470588
 40
0.2352941176470588
 40
0.2352941176470588
 40
0.2647058823529412
 40
0.2647058823529412
 40
0.2647058823529412
 40
0.2647058823529412
 40
0.2941176470588235
 40
0.2941176470588235
 40
0.2941176470588235
 40
0.2941176470588235
 40
0.3235294117647059
 40
0.3235294117647059
 40
0.3235294117647059
 40
0.3235294117647059
 40
0.3529411764705883
 40
0.3529411764705883
 40
0.3529411764705883
 40
0.3529411764705883
 40
0.3823529411764706
 40
0.3823529411764706
 40
0.3823529411764706
 40
0.3823529411764706
 40
0.4117647058823529
 40
0.4117647058823529
 40
0.4117647058823529
 40
0.4117647058823529
 40
0.4411764705882353
 40
0.4411764705882353
 40
0.4411764705882353
 40
0.4411764705882353
 40
0.4705882352941176
 40
0.4705882352941176
 40
0.4705882352941176
 40
0.4705882352941176
 40
0.5
 40
0.5
 40
0.5
 40
0.5
 40
0.5294117647058824
 40
0.5294117647058824
 40
0.5294117647058824
 40
0.5294117647058824
 40
0.5588235294117647
 40
0.5588235294117647
 40
0.5588235294117647
 40
0.5588235294117647
 40
0.5882352941176471
 40
0.5882352941176471
 40
0.5882352941176471
 40
0.5882352941176471
 40
0.6176470588235294
 40
0.6176470588235294
 40
0.6176470588235294
 40
0.6176470588235294
 40
0.6470588235294118
 40
0.6470588235294118
 40
0.6470588235294118
 40
0.6470588235294118
 40
0.6764705882352942
 40
0.6764705882352942
 40
0.6764705882352942
 40
0.6764705882352942
 40
0.7058823529411765
 40
0.7058823529411765
 40
0.7058823529411765
 40
0.7058823529411765
 40
0.7352941176470589
 40
0.7352941176470589
 40
0.7352941176470589
 40
0.7352941176470589
 40
0.7647058823529411
 40
0.7647058823529411
 40
0.7647058823529411
 40
0.7647058823529411
 40
0.7941176470588235
 40
0.7941176470588235
 40
0.7941176470588235
 40
0.7941176470588235
 40
0.8235294117647058
 40
0.8235294117647058
 40
0.8235294117647058
 40
0.8235294117647058
 40
0.8529411764705882
 40
0.8529411764705882
 40
0.8529411764705882
 40
0.8529411764705882
 40
0.8823529411764706
 40
0.8823529411764706
 40
0.8823529411764706
 40
0.8823529411764706
 40
0.9117647058823529
 40
0.9117647058823529
 40
0.9117647058823529
 40
0.9117647058823529
 40
0.9411764705882353
 40
0.9411764705882353
 40
0.9411764705882353
 40
0.9411764705882353
 40
1.0
 40
1.0
 40
1.0
 40
1.0
 10
-74.1145
 20
32.8858
 30
0.0
 10
-74.1145
 20
32.8858
 30
0.0
 10
-73.8997
 20
32.9203
 30
0.0
 10
-73.8997
 20
32.9203
 30
0.0
 10
-73.8997
 20
32.9203
 30
0.0
 10
-73.8878
 20
32.8343
 30
0.0
 10
-73.854
 20
32.7685
 30
0.0
 10
-73.7989
 20
32.7224
 30
0.0
 10
-73.7989
 20
32.7224
 30
0.0
 10
-73.7437
 20
32.6767
 30
0.0
 10
-73.6664
 20
32.6536
 30
0.0
 10
-73.5676
 20
32.6536
 30
0.0
 10
-73.5676
 20
32.6536
 30
0.0
 10
-73.4676
 20
32.6536
 30
0.0
 10
-73.3935
 20
32.6738
 30
0.0
 10
-73.3449
 20
32.7145
 30
0.0
 10
-73.3449
 20
32.7145
 30
0.0
 10
-73.2968
 20
32.7549
 30
0.0
 10
-73.2725
 20
32.8026
 30
0.0
 10
-73.2725
 20
32.8574
 30
0.0
 10
-73.2725
 20
32.8574
 30
0.0
 10
-73.2725
 20
32.9063
 30
0.0
 10
-73.2943
 20
32.945
 30
0.0
 10
-73.3375
 20
32.973
 30
0.0
 10
-73.3375
 20
32.973
 30
0.0
 10
-73.368
 20
32.9924
 30
0.0
 10
-73.442
 20
33.0166
 30
0.0
 10
-73.5598
 20
33.0467
 30
0.0
 10
-73.5598
 20
33.0467
 30
0.0
 10
-73.7186
 20
33.0866
 30
0.0
 10
-73.8285
 20
33.1212
 30
0.0
 10
-73.8902
 20
33.1504
 30
0.0
 10
-73.8902
 20
33.1504
 30
0.0
 10
-73.9516
 20
33.18
 30
0.0
 10
-73.9981
 20
33.2204
 30
0.0
 10
-74.0298
 20
33.2722
 30
0.0
 10
-74.0298
 20
33.2722
 30
0.0
 10
-74.0615
 20
33.3237
 30
0.0
 10
-74.0775
 20
33.3809
 30
0.0
 10
-74.0775
 20
33.4434
 30
0.0
 10
-74.0775
 20
33.4434
 30
0.0
 10
-74.0775
 20
33.5006
 30
0.0
 10
-74.0643
 20
33.5533
 30
0.0
 10
-74.0384
 20
33.6019
 30
0.0
 10
-74.0384
 20
33.6019
 30
0.0
 10
-74.0121
 20
33.6504
 30
0.0
 10
-73.9767
 20
33.6908
 30
0.0
 10
-73.9318
 20
33.7229
 30
0.0
 10
-73.9318
 20
33.7229
 30
0.0
 10
-73.8981
 20
33.7476
 30
0.0
 10
-73.852
 20
33.7686
 30
0.0
 10
-73.7939
 20
33.7859
 30
0.0
 10
-73.7939
 20
33.7859
 30
0.0
 10
-73.7355
 20
33.8031
 30
0.0
 10
-73.6733
 20
33.8118
 30
0.0
 10
-73.6067
 20
33.8118
 30
0.0
 10
-73.6067
 20
33.8118
 30
0.0
 10
-73.5063
 20
33.8118
 30
0.0
 10
-73.4182
 20
33.7974
 30
0.0
 10
-73.3424
 20
33.7682
 30
0.0
 10
-73.3424
 20
33.7682
 30
0.0
 10
-73.2663
 20
33.7393
 30
0.0
 10
-73.2103
 20
33.6998
 30
0.0
 10
-73.1741
 20
33.6504
 30
0.0
 10
-73.1741
 20
33.6504
 30
0.0
 10
-73.1383
 20
33.6006
 30
0.0
 10
-73.1132
 20
33.5344
 30
0.0
 10
-73.0996
 20
33.4512
 30
0.0
 10
-73.0996
 20
33.4512
 30
0.0
 10
-73.0996
 20
33.4512
 30
0.0
 10
-73.312
 20
33.4216
 30
0.0
 10
-73.312
 20
33.4216
 30
0.0
 10
-73.312
 20
33.4216
 30
0.0
 10
-73.3215
 20
33.4883
 30
0.0
 10
-73.3494
 20
33.5406
 30
0.0
 10
-73.3955
 20
33.578
 30
0.0
 10
-73.3955
 20
33.578
 30
0.0
 10
-73.4416
 20
33.6155
 30
0.0
 10
-73.5067
 20
33.634
 30
0.0
 10
-73.591
 20
33.634
 30
0.0
 10
-73.591
 20
33.634
 30
0.0
 10
-73.6902
 20
33.634
 30
0.0
 10
-73.7614
 20
33.6175
 30
0.0
 10
-73.8038
 20
33.5846
 30
0.0
 10
-73.8038
 20
33.5846
 30
0.0
 10
-73.8462
 20
33.5517
 30
0.0
 10
-73.8676
 20
33.513
 30
0.0
 10
-73.8676
 20
33.4689
 30
0.0
 10
-73.8676
 20
33.4689
 30
0.0
 10
-73.8676
 20
33.441
 30
0.0
 10
-73.859
 20
33.4154
 30
0.0
 10
-73.8413
 20
33.3928
 30
0.0
 10
-73.8413
 20
33.3928
 30
0.0
 10
-73.8236
 20
33.3698
 30
0.0
 10
-73.796
 20
33.3504
 30
0.0
 10
-73.7581
 20
33.3352
 30
0.0
 10
-73.7581
 20
33.3352
 30
0.0
 10
-73.7363
 20
33.327
 30
0.0
 10
-73.6729
 20
33.3084
 30
0.0
 10
-73.5668
 20
33.2796
 30
0.0
 10
-73.5668
 20
33.2796
 30
0.0
 10
-73.4137
 20
33.2389
 30
0.0
 10
-73.3066
 20
33.2051
 30
0.0
 10
-73.2457
 20
33.1792
 30
0.0
 10
-73.2457
 20
33.1792
 30
0.0
 10
-73.1848
 20
33.1533
 30
0.0
 10
-73.1371
 20
33.115
 30
0.0
 10
-73.1025
 20
33.0656
 30
0.0
 10
-73.1025
 20
33.0656
 30
0.0
 10
-73.0675
 20
33.0158
 30
0.0
 10
-73.0502
 20
32.9541
 30
0.0
 10
-73.0502
 20
32.88
 30
0.0
 10
-73.0502
 20
32.88
 30
0.0
 10
-73.0502
 20
32.808
 30
0.0
 10
-73.0712
 20
32.7401
 30
0.0
 10
-73.1136
 20
32.6763
 30
0.0
 10
-73.1136
 20
32.6763
 30
0.0
 10
-73.156
 20
32.6125
 30
0.0
 10
-73.2169
 20
32.5631
 30
0.0
 10
-73.2964
 20
32.5281
 30
0.0
 10
-73.2964
 20
32.5281
 30
0.0
 10
-73.3762
 20
32.4931
 30
0.0
 10
-73.4663
 20
32.4758
 30
0.0
 10
-73.5668
 20
32.4758
 30
0.0
 10
-73.5668
 20
32.4758
 30
0.0
 10
-73.733
 20
32.4758
 30
0.0
 10
-73.8602
 20
32.5104
 30
0.0
 10
-73.9475
 20
32.5791
 30
0.0
 10
-73.9475
 20
32.5791
 30
0.0
 10
-74.0347
 20
32.6483
 30
0.0
 10
-74.0903
 20
32.7504
 30
0.0
 10
-74.1145
 20
32.8858
 30
0.0
  0
SPLINE
  5
BF
330
1F
100
AcDbEntity
  8
0
 62
     1
100
AcDbSpline
210
0.0
220
0.0
230
1.0
 70
    11
 71
     3
 72
    60
 73
    56
 74
     0
 42
0.000000001
 43
0.0000000001
 40
0.0
 40
0.0
 40
0.0
 40
0.0
 40
0.0666666666666667
 40
0.0666666666666667
 40
0.0666666666666667
 40
0.0666666666666667
 40
0.1333333333333333
 40
0.1333333333333333
 40
0.1333333333333333
 40
0.1333333333333333
 40
0.2
 40
0.2
 40
0.2
 40
0.2
 40
0.2666666666666667
 40
0.2666666666666667
 40
0.2666666666666667
 40
0.2666666666666667
 40
0.3333333333333333
 40
0.3333333333333333
 40
0.3333333333333333
 40
0.3333333333333333
 40
0.4
 40
0.4
 40
0.4
 40
0.4
 40
0.4666666666666667
 40
0.4666666666666667
 40
0.4666666666666667
 40
0.4666666666666667
 40
0.5333333333333333
 40
0.5333333333333333
 40
0.5333333333333333
 40
0.5333333333333333
 40
0.6
 40
0.6
 40
0.6
 40
0.6
 40
0.6666666666666666
 40
0.6666666666666666
 40
0.6666666666666666
 40
0.6666666666666666
 40
0.7333333333333333
 40
0.7333333333333333
 40
0.7333333333333333
 40
0.7333333333333333
 40
0.8
 40
0.8
 40
0.8
 40
0.8
 40
0.8666666666666667
 40
0.8666666666666667
 40
0.8666666666666667
 40
0.8666666666666667
 40
1.0
 40
1.0
 40
1.0
 40
1.0
 10
-71.2801
 20
32.503
 30
0.0
 10
-71.2801
 20
32.503
 30
0.0
 10
-71.2801
 20
32.6656
 30
0.0
 10
-71.2801
 20
32.6656
 30
0.0
 10
-71.2801
 20
32.6656
 30
0.0
 10
-71.3611
 20
32.5392
 30
0.0
 10
-71.4805
 20
32.4758
 30
0.0
 10
-71.6381
 20
32.4758
 30
0.0
 10
-71.6381
 20
32.4758
 30
0.0
 10
-71.7402
 20
32.4758
 30
0.0
 10
-71.834
 20
32.5038
 30
0.0
 10
-71.9192
 20
32.5602
 30
0.0
 10
-71.9192
 20
32.5602
 30
0.0
 10
-72.0048
 20
32.6162
 30
0.0
 10
-72.0711
 20
32.6948
 30
0.0
 10
-72.1184
 20
32.7952
 30
0.0
 10
-72.1184
 20
32.7952
 30
0.0
 10
-72.1654
 20
32.896
 30
0.0
 10
-72.1888
 20
33.0117
 30
0.0
 10
-72.1888
 20
33.1426
 30
0.0
 10
-72.1888
 20
33.1426
 30
0.0
 10
-72.1888
 20
33.2702
 30
0.0
 10
-72.1674
 20
33.3858
 30
0.0
 10
-72.125
 20
33.4899
 30
0.0
 10
-72.125
 20
33.4899
 30
0.0
 10
-72.0822
 20
33.5937
 30
0.0
 10
-72.0184
 20
33.6735
 30
0.0
 10
-71.9332
 20
33.7286
 30
0.0
 10
-71.9332
 20
33.7286
 30
0.0
 10
-71.8484
 20
33.7842
 30
0.0
 10
-71.753
 20
33.8118
 30
0.0
 10
-71.648
 20
33.8118
 30
0.0
 10
-71.648
 20
33.8118
 30
0.0
 10
-71.5706
 20
33.8118
 30
0.0
 10
-71.5019
 20
33.7953
 30
0.0
 10
-71.4418
 20
33.7628
 30
0.0
 10
-71.4418
 20
33.7628
 30
0.0
 10
-71.3817
 20
33.7303
 30
0.0
 10
-71.3328
 20
33.6875
 30
0.0
 10
-71.2949
 20
33.6352
 30
0.0
 10
-71.2949
 20
33.6352
 30
0.0
 10
-71.2949
 20
33.6352
 30
0.0
 10
-71.2949
 20
34.2711
 30
0.0
 10
-71.2949
 20
34.2711
 30
0.0
 10
-71.2949
 20
34.2711
 30
0.0
 10
-71.2949
 20
34.2711
 30
0.0
 10
-71.0776
 20
34.2711
 30
0.0
 10
-71.0776
 20
34.2711
 30
0.0
 10
-71.0776
 20
34.2711
 30
0.0
 10
-71.0776
 20
34.2711
 30
0.0
 10
-71.0776
 20
32.503
 30
0.0
 10
-71.0776
 20
32.503
 30
0.0
 10
-71.0776
 20
32.503
 30
0.0
 10
-71.0776
 20
32.503
 30
0.0
 10
-71.2801
 20
32.503
 30
0.0
 10
-71.2801
 20
32.503
 30
0.0
  0
SPLINE
  5
C0
330
1F
100
AcDbEntity
  8
0
 62
     1
100
AcDbSpline
210
0.0
220
0.0
230
1.0
 70
    11
 71
     3
 72
    36
 73
    32
 74
     0
 42
0.000000001
 43
0.0000000001
 40
0.0
 40
0.0
 40
0.0
 40
0.0
 40
0.1111111111111111
 40
0.1111111111111111
 40
0.1111111111111111
 40
0.1111111111111111
 40
0.2222222222222222
 40
0.2222222222222222
 40
0.2222222222222222
 40
0.2222222222222222
 40
0.3333333333333333
 40
0.3333333333333333
 40
0.3333333333333333
 40
0.3333333333333333
 40
0.4444444444444444
 40
0.4444444444444444
 40
0.4444444444444444
 40
0.4444444444444444
 40
0.5555555555555556
 40
0.5555555555555556
 40
0.5555555555555556
 40
0.5555555555555556
 40
0.6666666666666666
 40
0.6666666666666666
 40
0.6666666666666666
 40
0.6666666666666666
 40
0.7777777777777778
 40
0.7777777777777778
 40
0.7777777777777778
 40
0.7777777777777778
 40
1.0
 40
1.0
 40
1.0
 40
1.0
 10
-71.9666
 20
33.1422
 30
0.0
 10
-71.9666
 20
32.9784
 30
0.0
 10
-71.932
 20
32.8561
 30
0.0
 10
-71.8624
 20
32.775
 30
0.0
 10
-71.8624
 20
32.775
 30
0.0
 10
-71.7933
 20
32.694
 30
0.0
 10
-71.7114
 20
32.6536
 30
0.0
 10
-71.6171
 20
32.6536
 30
0.0
 10
-71.6171
 20
32.6536
 30
0.0
 10
-71.5221
 20
32.6536
 30
0.0
 10
-71.4414
 20
32.6923
 30
0.0
 10
-71.3747
 20
32.7697
 30
0.0
 10
-71.3747
 20
32.7697
 30
0.0
 10
-71.3085
 20
32.8471
 30
0.0
 10
-71.2751
 20
32.9652
 30
0.0
 10
-71.2751
 20
33.1241
 30
0.0
 10
-71.2751
 20
33.1241
 30
0.0
 10
-71.2751
 20
33.2986
 30
0.0
 10
-71.3089
 20
33.427
 30
0.0
 10
-71.3768
 20
33.5089
 30
0.0
 10
-71.3768
 20
33.5089
 30
0.0
 10
-71.4443
 20
33.5908
 30
0.0
 10
-71.5278
 20
33.6315
 30
0.0
 10
-71.627
 20
33.6315
 30
0.0
 10
-71.627
 20
33.6315
 30
0.0
 10
-71.7237
 20
33.6315
 30
0.0
 10
-71.8044
 20
33.5924
 30
0.0
 10
-71.8694
 20
33.5138
 30
0.0
 10
-71.8694
 20
33.5138
 30
0.0
 10
-71.9341
 20
33.4352
 30
0.0
 10
-71.9666
 20
33.3113
 30
0.0
 10
-71.9666
 20
33.1422
 30
0.0
  0
SPLINE
  5
C1
330
1F
100
AcDbEntity
  8
0
 62
     1
100
AcDbSpline
210
0.0
220
0.0
230
1.0
 70
    11
 71
     3
 72
    64
 73
    60
 74
     0
 42
0.000000001
 43
0.0000000001
 40
0.0
 40
0.0
 40
0.0
 40
0.0
 40
0.0625
 40
0.0625
 40
0.0625
 40
0.0625
 40
0.125
 40
0.125
 40
0.125
 40
0.125
 40
0.1875
 40
0.1875
 40
0.1875
 40
0.1875
 40
0.25
 40
0.25
 40
0.25
 40
0.25
 40
0.3125
 40
0.3125
 40
0.3125
 40
0.3125
 40
0.375
 40
0.375
 40
0.375
 40
0.375
 40
0.4375
 40
0.4375
 40
0.4375
 40
0.4375
 40
0.5
 40
0.5
 40
0.5
 40
0.5
 40
0.5625
 40
0.5625
 40
0.5625
 40
0.5625
 40
0.625
 40
0.625
 40
0.625
 40
0.625
 40
0.6875
 40
0.6875
 40
0.6875
 40
0.6875
 40
0.75
 40
0.75
 40
0.75
 40
0.75
 40
0.8125
 40
0.8125
 40
0.8125
 40
0.8125
 40
0.875
 40
0.875
 40
0.875
 40
0.875
 40
1.0
 40
1.0
 40
1.0
 40
1.0
 10
-69.8598
 20
32.9179
 30
0.0
 10
-69.8598
 20
32.9179
 30
0.0
 10
-69.635
 20
32.8882
 30
0.0
 10
-69.635
 20
32.8882
 30
0.0
 10
-69.635
 20
32.8882
 30
0.0
 10
-69.67
 20
32.7578
 30
0.0
 10
-69.7355
 20
32.6561
 30
0.0
 10
-69.8309
 20
32.5841
 30
0.0
 10
-69.8309
 20
32.5841
 30
0.0
 10
-69.9264
 20
32.5121
 30
0.0
 10
-70.0482
 20
32.4758
 30
0.0
 10
-70.1968
 20
32.4758
 30
0.0
 10
-70.1968
 20
32.4758
 30
0.0
 10
-70.3837
 20
32.4758
 30
0.0
 10
-70.5318
 20
32.5335
 30
0.0
 10
-70.6413
 20
32.6487
 30
0.0
 10
-70.6413
 20
32.6487
 30
0.0
 10
-70.7508
 20
32.7635
 30
0.0
 10
-70.8055
 20
32.9253
 30
0.0
 10
-70.8055
 20
33.1331
 30
0.0
 10
-70.8055
 20
33.1331
 30
0.0
 10
-70.8055
 20
33.3479
 30
0.0
 10
-70.7504
 20
33.515
 30
0.0
 10
-70.6397
 20
33.6336
 30
0.0
 10
-70.6397
 20
33.6336
 30
0.0
 10
-70.529
 20
33.7525
 30
0.0
 10
-70.3853
 20
33.8118
 30
0.0
 10
-70.2088
 20
33.8118
 30
0.0
 10
-70.2088
 20
33.8118
 30
0.0
 10
-70.038
 20
33.8118
 30
0.0
 10
-69.8984
 20
33.7538
 30
0.0
 10
-69.7902
 20
33.6373
 30
0.0
 10
-69.7902
 20
33.6373
 30
0.0
 10
-69.682
 20
33.5208
 30
0.0
 10
-69.6276
 20
33.357
 30
0.0
 10
-69.6276
 20
33.1459
 30
0.0
 10
-69.6276
 20
33.1459
 30
0.0
 10
-69.6276
 20
33.1331
 30
0.0
 10
-69.628
 20
33.1138
 30
0.0
 10
-69.6289
 20
33.0882
 30
0.0
 10
-69.6289
 20
33.0882
 30
0.0
 10
-69.6289
 20
33.0882
 30
0.0
 10
-70.5833
 20
33.0882
 30
0.0
 10
-70.5833
 20
33.0882
 30
0.0
 10
-70.5833
 20
33.0882
 30
0.0
 10
-70.5751
 20
32.9479
 30
0.0
 10
-70.5355
 20
32.8401
 30
0.0
 10
-70.4639
 20
32.7656
 30
0.0
 10
-70.4639
 20
32.7656
 30
0.0
 10
-70.3927
 20
32.6911
 30
0.0
 10
-70.3034
 20
32.6536
 30
0.0
 10
-70.1968
 20
32.6536
 30
0.0
 10
-70.1968
 20
32.6536
 30
0.0
 10
-70.1174
 20
32.6536
 30
0.0
 10
-70.0495
 20
32.6746
 30
0.0
 10
-69.9935
 20
32.7166
 30
0.0
 10
-69.9935
 20
32.7166
 30
0.0
 10
-69.9371
 20
32.7586
 30
0.0
 10
-69.8927
 20
32.8257
 30
0.0
 10
-69.8598
 20
32.9179
 30
0.0
  0
SPLINE
  5
C2
330
1F
100
AcDbEntity
  8
0
 62
     1
100
AcDbSpline
210
0.0
220
0.0
230
1.0
 70
    11
 71
     3
 72
    24
 73
    20
 74
     0
 42
0.000000001
 43
0.0000000001
 40
0.0
 40
0.0
 40
0.0
 40
0.0
 40
0.1666666666666667
 40
0.1666666666666667
 40
0.1666666666666667
 40
0.1666666666666667
 40
0.3333333333333333
 40
0.3333333333333333
 40
0.3333333333333333
 40
0.3333333333333333
 40
0.5
 40
0.5
 40
0.5
 40
0.5
 40
0.6666666666666666
 40
0.6666666666666666
 40
0.6666666666666666
 40
0.6666666666666666
 40
1.0
 40
1.0
 40
1.0
 40
1.0
 10
-70.5709
 20
33.266
 30
0.0
 10
-70.5709
 20
33.266
 30
0.0
 10
-69.8573
 20
33.266
 30
0.0
 10
-69.8573
 20
33.266
 30
0.0
 10
-69.8573
 20
33.266
 30
0.0
 10
-69.8667
 20
33.3739
 30
0.0
 10
-69.8943
 20
33.4545
 30
0.0
 10
-69.9392
 20
33.5085
 30
0.0
 10
-69.9392
 20
33.5085
 30
0.0
 10
-70.0079
 20
33.592
 30
0.0
 10
-70.0976
 20
33.634
 30
0.0
 10
-70.2075
 20
33.634
 30
0.0
 10
-70.2075
 20
33.634
 30
0.0
 10
-70.3071
 20
33.634
 30
0.0
 10
-70.3907
 20
33.6006
 30
0.0
 10
-70.4586
 20
33.534
 30
0.0
 10
-70.4586
 20
33.534
 30
0.0
 10
-70.5261
 20
33.4673
 30
0.0
 10
-70.5635
 20
33.378
 30
0.0
 10
-70.5709
 20
33.266
 30
0.0
  0
SPLINE
  5
C3
330
1F
100
AcDbEntity
  8
0
 62
     1
100
AcDbSpline
210
0.0
220
0.0
230
1.0
 70
    11
 71
     3
 72
    64
 73
    60
 74
     0
 42
0.000000001
 43
0.0000000001
 40
0.0
 40
0.0
 40
0.0
 40
0.0
 40
0.0625
 40
0.0625
 40
0.0625
 40
0.0625
 40
0.125
 40
0.125
 40
0.125
 40
0.125
 40
0.1875
 40
0.1875
 40
0.1875
 40
0.1875
 40
0.25
 40
0.25
 40
0.25
 40
0.25
 40
0.3125
 40
0.3125
 40
0.3125
 40
0.3125
 40
0.375
 40
0.375
 40
0.375
 40
0.375
 40
0.4375
 40
0.4375
 40
0.4375
 40
0.4375
 40
0.5
 40
0.5
 40
0.5
 40
0.5
 40
0.5625
 40
0.5625
 40
0.5625
 40
0.5625
 40
0.625
 40
0.625
 40
0.625
 40
0.625
 40
0.6875
 40
0.6875
 40
0.6875
 40
0.6875
 40
0.75
 40
0.75
 40
0.75
 40
0.75
 40
0.8125
 40
0.8125
 40
0.8125
 40
0.8125
 40
0.875
 40
0.875
 40
0.875
 40
0.875
 40
1.0
 40
1.0
 40
1.0
 40
1.0
 10
-69.3605
 20
32.0116
 30
0.0
 10
-69.3605
 20
32.0116
 30
0.0
 10
-69.3605
 20
33.7846
 30
0.0
 10
-69.3605
 20
33.7846
 30
0.0
 10
-69.3605
 20
33.7846
 30
0.0
 10
-69.3605
 20
33.7846
 30
0.0
 10
-69.163
 20
33.7846
 30
0.0
 10
-69.163
 20
33.7846
 30
0.0
 10
-69.163
 20
33.7846
 30
0.0
 10
-69.163
 20
33.7846
 30
0.0
 10
-69.163
 20
33.6163
 30
0.0
 10
-69.163
 20
33.6163
 30
0.0
 10
-69.163
 20
33.6163
 30
0.0
 10
-69.1165
 20
33.6813
 30
0.0
 10
-69.0638
 20
33.7303
 30
0.0
 10
-69.0049
 20
33.7628
 30
0.0
 10
-69.0049
 20
33.7628
 30
0.0
 10
-68.9465
 20
33.7953
 30
0.0
 10
-68.8753
 20
33.8118
 30
0.0
 10
-68.7917
 20
33.8118
 30
0.0
 10
-68.7917
 20
33.8118
 30
0.0
 10
-68.6823
 20
33.8118
 30
0.0
 10
-68.586
 20
33.7838
 30
0.0
 10
-68.5024
 20
33.7274
 30
0.0
 10
-68.5024
 20
33.7274
 30
0.0
 10
-68.4189
 20
33.6714
 30
0.0
 10
-68.3559
 20
33.592
 30
0.0
 10
-68.3131
 20
33.4899
 30
0.0
 10
-68.3131
 20
33.4899
 30
0.0
 10
-68.2707
 20
33.3875
 30
0.0
 10
-68.2493
 20
33.2755
 30
0.0
 10
-68.2493
 20
33.1533
 30
0.0
 10
-68.2493
 20
33.1533
 30
0.0
 10
-68.2493
 20
33.0228
 30
0.0
 10
-68.2727
 20
32.9051
 30
0.0
 10
-68.3197
 20
32.8002
 30
0.0
 10
-68.3197
 20
32.8002
 30
0.0
 10
-68.3666
 20
32.6956
 30
0.0
 10
-68.4349
 20
32.6154
 30
0.0
 10
-68.5246
 20
32.5594
 30
0.0
 10
-68.5246
 20
32.5594
 30
0.0
 10
-68.6139
 20
32.5038
 30
0.0
 10
-68.7082
 20
32.4758
 30
0.0
 10
-68.807
 20
32.4758
 30
0.0
 10
-68.807
 20
32.4758
 30
0.0
 10
-68.8794
 20
32.4758
 30
0.0
 10
-68.9444
 20
32.4911
 30
0.0
 10
-69.0016
 20
32.5215
 30
0.0
 10
-69.0016
 20
32.5215
 30
0.0
 10
-69.0593
 20
32.552
 30
0.0
 10
-69.1062
 20
32.5903
 30
0.0
 10
-69.1432
 20
32.6368
 30
0.0
 10
-69.1432
 20
32.6368
 30
0.0
 10
-69.1432
 20
32.6368
 30
0.0
 10
-69.1432
 20
32.0116
 30
0.0
 10
-69.1432
 20
32.0116
 30
0.0
 10
-69.1432
 20
32.0116
 30
0.0
 10
-69.1432
 20
32.0116
 30
0.0
 10
-69.3605
 20
32.0116
 30
0.0
 10
-69.3605
 20
32.0116
 30
0.0
  0
SPLINE
  5
C4
330
1F
100
AcDbEntity
  8
0
 62
     1
100
AcDbSpline
210
0.0
220
0.0
230
1.0
 70
    11
 71
     3
 72
    36
 73
    32
 74
     0
 42
0.000000001
 43
0.0000000001
 40
0.0
 40
0.0
 40
0.0
 40
0.0
 40
0.1111111111111111
 40
0.1111111111111111
 40
0.1111111111111111
 40
0.1111111111111111
 40
0.2222222222222222
 40
0.2222222222222222
 40
0.2222222222222222
 40
0.2222222222222222
 40
0.3333333333333333
 40
0.3333333333333333
 40
0.3333333333333333
 40
0.3333333333333333
 40
0.4444444444444444
 40
0.4444444444444444
 40
0.4444444444444444
 40
0.4444444444444444
 40
0.5555555555555556
 40
0.5555555555555556
 40
0.5555555555555556
 40
0.5555555555555556
 40
0.6666666666666666
 40
0.6666666666666666
 40
0.6666666666666666
 40
0.6666666666666666
 40
0.7777777777777778
 40
0.7777777777777778
 40
0.7777777777777778
 40
0.7777777777777778
 40
1.0
 40
1.0
 40
1.0
 40
1.0
 10
-69.163
 20
33.136
 30
0.0
 10
-69.163
 20
32.9718
 30
0.0
 10
-69.1296
 20
32.8504
 30
0.0
 10
-69.0634
 20
32.7718
 30
0.0
 10
-69.0634
 20
32.7718
 30
0.0
 10
-68.9967
 20
32.6931
 30
0.0
 10
-68.916
 20
32.6536
 30
0.0
 10
-68.8214
 20
32.6536
 30
0.0
 10
-68.8214
 20
32.6536
 30
0.0
 10
-68.7251
 20
32.6536
 30
0.0
 10
-68.6427
 20
32.6944
 30
0.0
 10
-68.5744
 20
32.7759
 30
0.0
 10
-68.5744
 20
32.7759
 30
0.0
 10
-68.5057
 20
32.8574
 30
0.0
 10
-68.4715
 20
32.9833
 30
0.0
 10
-68.4715
 20
33.1541
 30
0.0
 10
-68.4715
 20
33.1541
 30
0.0
 10
-68.4715
 20
33.3171
 30
0.0
 10
-68.5049
 20
33.4389
 30
0.0
 10
-68.572
 20
33.52
 30
0.0
 10
-68.572
 20
33.52
 30
0.0
 10
-68.639
 20
33.6011
 30
0.0
 10
-68.7189
 20
33.6414
 30
0.0
 10
-68.8119
 20
33.6414
 30
0.0
 10
-68.8119
 20
33.6414
 30
0.0
 10
-68.9041
 20
33.6414
 30
0.0
 10
-68.9856
 20
33.5982
 30
0.0
 10
-69.0564
 20
33.5122
 30
0.0
 10
-69.0564
 20
33.5122
 30
0.0
 10
-69.1276
 20
33.4257
 30
0.0
 10
-69.163
 20
33.3006
 30
0.0
 10
-69.163
 20
33.136
 30
0.0
  0
SPLINE
  5
C5
330
1F
100
AcDbEntity
  8
0
 62
     1
100
AcDbSpline
210
0.0
220
0.0
230
1.0
 70
    11
 71
     3
 72
    80
 73
    76
 74
     0
 42
0.000000001
 43
0.0000000001
 40
0.0
 40
0.0
 40
0.0
 40
0.0
 40
0.05
 40
0.05
 40
0.05
 40
0.05
 40
0.1
 40
0.1
 40
0.1
 40
0.1
 40
0.15
 40
0.15
 40
0.15
 40
0.15
 40
0.2
 40
0.2
 40
0.2
 40
0.2
 40
0.25
 40
0.25
 40
0.25
 40
0.25
 40
0.3
 40
0.3
 40
0.3
 40
0.3
 40
0.35
 40
0.35
 40
0.35
 40
0.35
 40
0.4
 40
0.4
 40
0.4
 40
0.4
 40
0.45
 40
0.45
 40
0.45
 40
0.45
 40
0.5
 40
0.5
 40
0.5
 40
0.5
 40
0.55
 40
0.55
 40
0.55
 40
0.55
 40
0.6
 40
0.6
 40
0.6
 40
0.6
 40
0.65
 40
0.65
 40
0.65
 40
0.65
 40
0.7
 40
0.7
 40
0.7
 40
0.7
 40
0.75
 40
0.75
 40
0.75
 40
0.75
 40
0.8
 40
0.8
 40
0.8
 40
0.8
 40
0.85
 40
0.85
 40
0.85
 40
0.85
 40
0.9
 40
0.9
 40
0.9
 40
0.9
 40
1.0
 40
1.0
 40
1.0
 40
1.0
 10
-67.15
 20
32.503
 30
0.0
 10
-67.15
 20
32.503
 30
0.0
 10
-67.15
 20
32.6936
 30
0.0
 10
-67.15
 20
32.6936
 30
0.0
 10
-67.15
 20
32.6936
 30
0.0
 10
-67.2496
 20
32.5483
 30
0.0
 10
-67.3846
 20
32.4758
 30
0.0
 10
-67.5554
 20
32.4758
 30
0.0
 10
-67.5554
 20
32.4758
 30
0.0
 10
-67.6307
 20
32.4758
 30
0.0
 10
-67.7011
 20
32.4902
 30
0.0
 10
-67.7665
 20
32.5191
 30
0.0
 10
-67.7665
 20
32.5191
 30
0.0
 10
-67.832
 20
32.5483
 30
0.0
 10
-67.8805
 20
32.5845
 30
0.0
 10
-67.9122
 20
32.6281
 30
0.0
 10
-67.9122
 20
32.6281
 30
0.0
 10
-67.9439
 20
32.6722
 30
0.0
 10
-67.9661
 20
32.7257
 30
0.0
 10
-67.9789
 20
32.789
 30
0.0
 10
-67.9789
 20
32.789
 30
0.0
 10
-67.9875
 20
32.8318
 30
0.0
 10
-67.9921
 20
32.8993
 30
0.0
 10
-67.9921
 20
32.9915
 30
0.0
 10
-67.9921
 20
32.9915
 30
0.0
 10
-67.9921
 20
32.9915
 30
0.0
 10
-67.9921
 20
33.7846
 30
0.0
 10
-67.9921
 20
33.7846
 30
0.0
 10
-67.9921
 20
33.7846
 30
0.0
 10
-67.9921
 20
33.7846
 30
0.0
 10
-67.7748
 20
33.7846
 30
0.0
 10
-67.7748
 20
33.7846
 30
0.0
 10
-67.7748
 20
33.7846
 30
0.0
 10
-67.7748
 20
33.7846
 30
0.0
 10
-67.7748
 20
33.0755
 30
0.0
 10
-67.7748
 20
33.0755
 30
0.0
 10
-67.7748
 20
33.0755
 30
0.0
 10
-67.7748
 20
32.9623
 30
0.0
 10
-67.7702
 20
32.8858
 30
0.0
 10
-67.7616
 20
32.8467
 30
0.0
 10
-67.7616
 20
32.8467
 30
0.0
 10
-67.748
 20
32.7895
 30
0.0
 10
-67.7192
 20
32.745
 30
0.0
 10
-67.6747
 20
32.7125
 30
0.0
 10
-67.6747
 20
32.7125
 30
0.0
 10
-67.6307
 20
32.68
 30
0.0
 10
-67.5764
 20
32.6635
 30
0.0
 10
-67.5113
 20
32.6635
 30
0.0
 10
-67.5113
 20
32.6635
 30
0.0
 10
-67.4463
 20
32.6635
 30
0.0
 10
-67.3854
 20
32.68
 30
0.0
 10
-67.3286
 20
32.7133
 30
0.0
 10
-67.3286
 20
32.7133
 30
0.0
 10
-67.2718
 20
32.7466
 30
0.0
 10
-67.2315
 20
32.7923
 30
0.0
 10
-67.2076
 20
32.8495
 30
0.0
 10
-67.2076
 20
32.8495
 30
0.0
 10
-67.1842
 20
32.9067
 30
0.0
 10
-67.1722
 20
32.9903
 30
0.0
 10
-67.1722
 20
33.0994
 30
0.0
 10
-67.1722
 20
33.0994
 30
0.0
 10
-67.1722
 20
33.0994
 30
0.0
 10
-67.1722
 20
33.7846
 30
0.0
 10
-67.1722
 20
33.7846
 30
0.0
 10
-67.1722
 20
33.7846
 30
0.0
 10
-67.1722
 20
33.7846
 30
0.0
 10
-66.9549
 20
33.7846
 30
0.0
 10
-66.9549
 20
33.7846
 30
0.0
 10
-66.9549
 20
33.7846
 30
0.0
 10
-66.9549
 20
33.7846
 30
0.0
 10
-66.9549
 20
32.503
 30
0.0
 10
-66.9549
 20
32.503
 30
0.0
 10
-66.9549
 20
32.503
 30
0.0
 10
-66.9549
 20
32.503
 30
0.0
 10
-67.15
 20
32.503
 30
0.0
 10
-67.15
 20
32.503
 30
0.0
  0
SPLINE
  5
C6
330
1F
100
AcDbEntity
  8
0
 62
     1
100
AcDbSpline
210
0.0
220
0.0
230
1.0
 70
    11
 71
     3
 72
    20
 73
    16
 74
     0
 42
0.000000001
 43
0.0000000001
 40
0.0
 40
0.0
 40
0.0
 40
0.0
 40
0.2
 40
0.2
 40
0.2
 40
0.2
 40
0.4
 40
0.4
 40
0.4
 40
0.4
 40
0.6
 40
0.6
 40
0.6
 40
0.6
 40
1.0
 40
1.0
 40
1.0
 40
1.0
 10
-66.6137
 20
34.0242
 30
0.0
 10
-66.6137
 20
34.0242
 30
0.0
 10
-66.6137
 20
34.2711
 30
0.0
 10
-66.6137
 20
34.2711
 30
0.0
 10
-66.6137
 20
34.2711
 30
0.0
 10
-66.6137
 20
34.2711
 30
0.0
 10
-66.3964
 20
34.2711
 30
0.0
 10
-66.3964
 20
34.2711
 30
0.0
 10
-66.3964
 20
34.2711
 30
0.0
 10
-66.3964
 20
34.2711
 30
0.0
 10
-66.3964
 20
34.0242
 30
0.0
 10
-66.3964
 20
34.0242
 30
0.0
 10
-66.3964
 20
34.0242
 30
0.0
 10
-66.3964
 20
34.0242
 30
0.0
 10
-66.6137
 20
34.0242
 30
0.0
 10
-66.6137
 20
34.0242
 30
0.0
  0
SPLINE
  5
C7
330
1F
100
AcDbEntity
  8
0
 62
     1
100
AcDbSpline
210
0.0
220
0.0
230
1.0
 70
    11
 71
     3
 72
    20
 73
    16
 74
     0
 42
0.000000001
 43
0.0000000001
 40
0.0
 40
0.0
 40
0.0
 40
0.0
 40
0.2
 40
0.2
 40
0.2
 40
0.2
 40
0.4
 40
0.4
 40
0.4
 40
0.4
 40
0.6
 40
0.6
 40
0.6
 40
0.6
 40
1.0
 40
1.0
 40
1.0
 40
1.0
 10
-66.6137
 20
32.503
 30
0.0
 10
-66.6137
 20
32.503
 30
0.0
 10
-66.6137
 20
33.7846
 30
0.0
 10
-66.6137
 20
33.7846
 30
0.0
 10
-66.6137
 20
33.7846
 30
0.0
 10
-66.6137
 20
33.7846
 30
0.0
 10
-66.3964
 20
33.7846
 30
0.0
 10
-66.3964
 20
33.7846
 30
0.0
 10
-66.3964
 20
33.7846
 30
0.0
 10
-66.3964
 20
33.7846
 30
0.0
 10
-66.3964
 20
32.503
 30
0.0
 10
-66.3964
 20
32.503
 30
0.0
 10
-66.3964
 20
32.503
 30
0.0
 10
-66.3964
 20
32.503
 30
0.0
 10
-66.6137
 20
32.503
 30
0.0
 10
-66.6137
 20
32.503
 30
0.0
  0
SPLINE
  5
C8
330
1F
100
AcDbEntity
  8
0
 62
     1
100
AcDbSpline
210
0.0
220
0.0
230
1.0
 70
    11
 71
     3
 72
   136
 73
   132
 74
     0
 42
0.000000001
 43
0.0000000001
 40
0.0
 40
0.0
 40
0.0
 40
0.0
 40
0.0294117647058824
 40
0.0294117647058824
 40
0.0294117647058824
 40
0.0294117647058824
 40
0.0588235294117647
 40
0.0588235294117647
 40
0.0588235294117647
 40
0.0588235294117647
 40
0.0882352941176471
 40
0.0882352941176471
 40
0.0882352941176471
 40
0.0882352941176471
 40
0.1176470588235294
 40
0.1176470588235294
 40
0.1176470588235294
 40
0.1176470588235294
 40
0.1470588235294118
 40
0.1470588235294118
 40
0.1470588235294118
 40
0.1470588235294118
 40
0.1764705882352941
 40
0.1764705882352941
 40
0.1764705882352941
 40
0.1764705882352941
 40
0.2058823529411765
 40
0.2058823529411765
 40
0.2058823529411765
 40
0.2058823529411765
 40
0.2352941176470588
 40
0.2352941176470588
 40
0.2352941176470588
 40
0.2352941176470588
 40
0.2647058823529412
 40
0.2647058823529412
 40
0.2647058823529412
 40
0.2647058823529412
 40
0.2941176470588235
 40
0.2941176470588235
 40
0.2941176470588235
 40
0.2941176470588235
 40
0.3235294117647059
 40
0.3235294117647059
 40
0.3235294117647059
 40
0.3235294117647059
 40
0.3529411764705883
 40
0.3529411764705883
 40
0.3529411764705883
 40
0.3529411764705883
 40
0.3823529411764706
 40
0.3823529411764706
 40
0.3823529411764706
 40
0.3823529411764706
 40
0.4117647058823529
 40
0.4117647058823529
 40
0.4117647058823529
 40
0.4117647058823529
 40
0.4411764705882353
 40
0.4411764705882353
 40
0.4411764705882353
 40
0.4411764705882353
 40
0.4705882352941176
 40
0.4705882352941176
 40
0.4705882352941176
 40
0.4705882352941176
 40
0.5
 40
0.5
 40
0.5
 40
0.5
 40
0.5294117647058824
 40
0.5294117647058824
 40
0.5294117647058824
 40
0.5294117647058824
 40
0.5588235294117647
 40
0.5588235294117647
 40
0.5588235294117647
 40
0.5588235294117647
 40
0.5882352941176471
 40
0.5882352941176471
 40
0.5882352941176471
 40
0.5882352941176471
 40
0.6176470588235294
 40
0.6176470588235294
 40
0.6176470588235294
 40
0.6176470588235294
 40
0.6470588235294118
 40
0.6470588235294118
 40
0.6470588235294118
 40
0.6470588235294118
 40
0.6764705882352942
 40
0.6764705882352942
 40
0.6764705882352942
 40
0.6764705882352942
 40
0.7058823529411765
 40
0.7058823529411765
 40
0.7058823529411765
 40
0.7058823529411765
 40
0.7352941176470589
 40
0.7352941176470589
 40
0.7352941176470589
 40
0.7352941176470589
 40
0.7647058823529411
 40
0.7647058823529411
 40
0.7647058823529411
 40
0.7647058823529411
 40
0.7941176470588235
 40
0.7941176470588235
 40
0.7941176470588235
 40
0.7941176470588235
 40
0.8235294117647058
 40
0.8235294117647058
 40
0.8235294117647058
 40
0.8235294117647058
 40
0.8529411764705882
 40
0.8529411764705882
 40
0.8529411764705882
 40
0.8529411764705882
 40
0.8823529411764706
 40
0.8823529411764706
 40
0.8823529411764706
 40
0.8823529411764706
 40
0.9117647058823529
 40
0.9117647058823529
 40
0.9117647058823529
 40
0.9117647058823529
 40
0.9411764705882353
 40
0.9411764705882353
 40
0.9411764705882353
 40
0.9411764705882353
 40
1.0
 40
1.0
 40
1.0
 40
1.0
 10
-66.1515
 20
32.8858
 30
0.0
 10
-66.1515
 20
32.8858
 30
0.0
 10
-65.9367
 20
32.9203
 30
0.0
 10
-65.9367
 20
32.9203
 30
0.0
 10
-65.9367
 20
32.9203
 30
0.0
 10
-65.9248
 20
32.8343
 30
0.0
 10
-65.891
 20
32.7685
 30
0.0
 10
-65.8359
 20
32.7224
 30
0.0
 10
-65.8359
 20
32.7224
 30
0.0
 10
-65.7807
 20
32.6767
 30
0.0
 10
-65.7034
 20
32.6536
 30
0.0
 10
-65.6046
 20
32.6536
 30
0.0
 10
-65.6046
 20
32.6536
 30
0.0
 10
-65.5046
 20
32.6536
 30
0.0
 10
-65.4305
 20
32.6738
 30
0.0
 10
-65.3819
 20
32.7145
 30
0.0
 10
-65.3819
 20
32.7145
 30
0.0
 10
-65.3338
 20
32.7549
 30
0.0
 10
-65.3095
 20
32.8026
 30
0.0
 10
-65.3095
 20
32.8574
 30
0.0
 10
-65.3095
 20
32.8574
 30
0.0
 10
-65.3095
 20
32.9063
 30
0.0
 10
-65.3313
 20
32.945
 30
0.0
 10
-65.3745
 20
32.973
 30
0.0
 10
-65.3745
 20
32.973
 30
0.0
 10
-65.405
 20
32.9924
 30
0.0
 10
-65.479
 20
33.0166
 30
0.0
 10
-65.5968
 20
33.0467
 30
0.0
 10
-65.5968
 20
33.0467
 30
0.0
 10
-65.7556
 20
33.0866
 30
0.0
 10
-65.8655
 20
33.1212
 30
0.0
 10
-65.9272
 20
33.1504
 30
0.0
 10
-65.9272
 20
33.1504
 30
0.0
 10
-65.9886
 20
33.18
 30
0.0
 10
-66.0351
 20
33.2204
 30
0.0
 10
-66.0668
 20
33.2722
 30
0.0
 10
-66.0668
 20
33.2722
 30
0.0
 10
-66.0985
 20
33.3237
 30
0.0
 10
-66.1145
 20
33.3809
 30
0.0
 10
-66.1145
 20
33.4434
 30
0.0
 10
-66.1145
 20
33.4434
 30
0.0
 10
-66.1145
 20
33.5006
 30
0.0
 10
-66.1013
 20
33.5533
 30
0.0
 10
-66.0754
 20
33.6019
 30
0.0
 10
-66.0754
 20
33.6019
 30
0.0
 10
-66.0491
 20
33.6504
 30
0.0
 10
-66.0137
 20
33.6908
 30
0.0
 10
-65.9688
 20
33.7229
 30
0.0
 10
-65.9688
 20
33.7229
 30
0.0
 10
-65.9351
 20
33.7476
 30
0.0
 10
-65.889
 20
33.7686
 30
0.0
 10
-65.8309
 20
33.7859
 30
0.0
 10
-65.8309
 20
33.7859
 30
0.0
 10
-65.7725
 20
33.8031
 30
0.0
 10
-65.7103
 20
33.8118
 30
0.0
 10
-65.6437
 20
33.8118
 30
0.0
 10
-65.6437
 20
33.8118
 30
0.0
 10
-65.5433
 20
33.8118
 30
0.0
 10
-65.4552
 20
33.7974
 30
0.0
 10
-65.3794
 20
33.7682
 30
0.0
 10
-65.3794
 20
33.7682
 30
0.0
 10
-65.3033
 20
33.7393
 30
0.0
 10
-65.2473
 20
33.6998
 30
0.0
 10
-65.2111
 20
33.6504
 30
0.0
 10
-65.2111
 20
33.6504
 30
0.0
 10
-65.1753
 20
33.6006
 30
0.0
 10
-65.1502
 20
33.5344
 30
0.0
 10
-65.1366
 20
33.4512
 30
0.0
 10
-65.1366
 20
33.4512
 30
0.0
 10
-65.1366
 20
33.4512
 30
0.0
 10
-65.349
 20
33.4216
 30
0.0
 10
-65.349
 20
33.4216
 30
0.0
 10
-65.349
 20
33.4216
 30
0.0
 10
-65.3585
 20
33.4883
 30
0.0
 10
-65.3864
 20
33.5406
 30
0.0
 10
-65.4325
 20
33.578
 30
0.0
 10
-65.4325
 20
33.578
 30
0.0
 10
-65.4786
 20
33.6155
 30
0.0
 10
-65.5437
 20
33.634
 30
0.0
 10
-65.628
 20
33.634
 30
0.0
 10
-65.628
 20
33.634
 30
0.0
 10
-65.7272
 20
33.634
 30
0.0
 10
-65.7984
 20
33.6175
 30
0.0
 10
-65.8408
 20
33.5846
 30
0.0
 10
-65.8408
 20
33.5846
 30
0.0
 10
-65.8832
 20
33.5517
 30
0.0
 10
-65.9046
 20
33.513
 30
0.0
 10
-65.9046
 20
33.4689
 30
0.0
 10
-65.9046
 20
33.4689
 30
0.0
 10
-65.9046
 20
33.441
 30
0.0
 10
-65.896
 20
33.4154
 30
0.0
 10
-65.8783
 20
33.3928
 30
0.0
 10
-65.8783
 20
33.3928
 30
0.0
 10
-65.8606
 20
33.3698
 30
0.0
 10
-65.833
 20
33.3504
 30
0.0
 10
-65.7951
 20
33.3352
 30
0.0
 10
-65.7951
 20
33.3352
 30
0.0
 10
-65.7733
 20
33.327
 30
0.0
 10
-65.7099
 20
33.3084
 30
0.0
 10
-65.6038
 20
33.2796
 30
0.0
 10
-65.6038
 20
33.2796
 30
0.0
 10
-65.4507
 20
33.2389
 30
0.0
 10
-65.3436
 20
33.2051
 30
0.0
 10
-65.2827
 20
33.1792
 30
0.0
 10
-65.2827
 20
33.1792
 30
0.0
 10
-65.2218
 20
33.1533
 30
0.0
 10
-65.1741
 20
33.115
 30
0.0
 10
-65.1395
 20
33.0656
 30
0.0
 10
-65.1395
 20
33.0656
 30
0.0
 10
-65.1045
 20
33.0158
 30
0.0
 10
-65.0872
 20
32.9541
 30
0.0
 10
-65.0872
 20
32.88
 30
0.0
 10
-65.0872
 20
32.88
 30
0.0
 10
-65.0872
 20
32.808
 30
0.0
 10
-65.1082
 20
32.7401
 30
0.0
 10
-65.1506
 20
32.6763
 30
0.0
 10
-65.1506
 20
32.6763
 30
0.0
 10
-65.193
 20
32.6125
 30
0.0
 10
-65.2539
 20
32.5631
 30
0.0
 10
-65.3334
 20
32.5281
 30
0.0
 10
-65.3334
 20
32.5281
 30
0.0
 10
-65.4132
 20
32.4931
 30
0.0
 10
-65.5033
 20
32.4758
 30
0.0
 10
-65.6038
 20
32.4758
 30
0.0
 10
-65.6038
 20
32.4758
 30
0.0
 10
-65.77
 20
32.4758
 30
0.0
 10
-65.8972
 20
32.5104
 30
0.0
 10
-65.9845
 20
32.5791
 30
0.0
 10
-65.9845
 20
32.5791
 30
0.0
 10
-66.0717
 20
32.6483
 30
0.0
 10
-66.1273
 20
32.7504
 30
0.0
 10
-66.1515
 20
32.8858
 30
0.0
  0
SPLINE
  5
C9
330
1F
100
AcDbEntity
  8
0
 62
     1
100
AcDbSpline
210
0.0
220
0.0
230
1.0
 70
    11
 71
     3
 72
    40
 73
    36
 74
     0
 42
0.000000001
 43
0.0000000001
 40
0.0
 40
0.0
 40
0.0
 40
0.0
 40
0.1
 40
0.1
 40
0.1
 40
0.1
 40
0.2
 40
0.2
 40
0.2
 40
0.2
 40
0.3
 40
0.3
 40
0.3
 40
0.3
 40
0.4
 40
0.4
 40
0.4
 40
0.4
 40
0.5
 40
0.5
 40
0.5
 40
0.5
 40
0.6
 40
0.6
 40
0.6
 40
0.6
 40
0.7
 40
0.7
 40
0.7
 40
0.7
 40
0.8
 40
0.8
 40
0.8
 40
0.8
 40
1.0
 40
1.0
 40
1.0
 40
1.0
 10
-63.3887
 20
32.503
 30
0.0
 10
-63.3887
 20
32.503
 30
0.0
 10
-63.606
 20
32.503
 30
0.0
 10
-63.606
 20
32.503
 30
0.0
 10
-63.606
 20
32.503
 30
0.0
 10
-63.606
 20
32.503
 30
0.0
 10
-63.606
 20
33.8867
 30
0.0
 10
-63.606
 20
33.8867
 30
0.0
 10
-63.606
 20
33.8867
 30
0.0
 10
-63.6583
 20
33.8365
 30
0.0
 10
-63.727
 20
33.7867
 30
0.0
 10
-63.8118
 20
33.7369
 30
0.0
 10
-63.8118
 20
33.7369
 30
0.0
 10
-63.8966
 20
33.6871
 30
0.0
 10
-63.9731
 20
33.6496
 30
0.0
 10
-64.0406
 20
33.6249
 30
0.0
 10
-64.0406
 20
33.6249
 30
0.0
 10
-64.0406
 20
33.6249
 30
0.0
 10
-64.0406
 20
33.8348
 30
0.0
 10
-64.0406
 20
33.8348
 30
0.0
 10
-64.0406
 20
33.8348
 30
0.0
 10
-63.9192
 20
33.8916
 30
0.0
 10
-63.813
 20
33.9608
 30
0.0
 10
-63.7221
 20
34.0423
 30
0.0
 10
-63.7221
 20
34.0423
 30
0.0
 10
-63.6311
 20
34.1233
 30
0.0
 10
-63.5665
 20
34.2019
 30
0.0
 10
-63.5286
 20
34.2785
 30
0.0
 10
-63.5286
 20
34.2785
 30
0.0
 10
-63.5286
 20
34.2785
 30
0.0
 10
-63.3887
 20
34.2785
 30
0.0
 10
-63.3887
 20
34.2785
 30
0.0
 10
-63.3887
 20
34.2785
 30
0.0
 10
-63.3887
 20
34.2785
 30
0.0
 10
-63.3887
 20
32.503
 30
0.0
 10
-63.3887
 20
32.503
 30
0.0
  0
SPLINE
  5
CA
330
1F
100
AcDbEntity
  8
0
 62
     1
100
AcDbSpline
210
0.0
220
0.0
230
1.0
 70
    11
 71
     3
 72
    92
 73
    88
 74
     0
 42
0.000000001
 43
0.0000000001
 40
0.0
 40
0.0
 40
0.0
 40
0.0
 40
0.0434782608695652
 40
0.0434782608695652
 40
0.0434782608695652
 40
0.0434782608695652
 40
0.0869565217391304
 40
0.0869565217391304
 40
0.0869565217391304
 40
0.0869565217391304
 40
0.1304347826086956
 40
0.1304347826086956
 40
0.1304347826086956
 40
0.1304347826086956
 40
0.1739130434782609
 40
0.1739130434782609
 40
0.1739130434782609
 40
0.1739130434782609
 40
0.2173913043478261
 40
0.2173913043478261
 40
0.2173913043478261
 40
0.2173913043478261
 40
0.2608695652173913
 40
0.2608695652173913
 40
0.2608695652173913
 40
0.2608695652173913
 40
0.3043478260869565
 40
0.3043478260869565
 40
0.3043478260869565
 40
0.3043478260869565
 40
0.3478260869565217
 40
0.3478260869565217
 40
0.3478260869565217
 40
0.3478260869565217
 40
0.391304347826087
 40
0.391304347826087
 40
0.391304347826087
 40
0.391304347826087
 40
0.4347826086956522
 40
0.4347826086956522
 40
0.4347826086956522
 40
0.4347826086956522
 40
0.4782608695652174
 40
0.4782608695652174
 40
0.4782608695652174
 40
0.4782608695652174
 40
0.5217391304347826
 40
0.5217391304347826
 40
0.5217391304347826
 40
0.5217391304347826
 40
0.5652173913043478
 40
0.5652173913043478
 40
0.5652173913043478
 40
0.5652173913043478
 40
0.6086956521739131
 40
0.6086956521739131
 40
0.6086956521739131
 40
0.6086956521739131
 40
0.6521739130434783
 40
0.6521739130434783
 40
0.6521739130434783
 40
0.6521739130434783
 40
0.6956521739130435
 40
0.6956521739130435
 40
0.6956521739130435
 40
0.6956521739130435
 40
0.7391304347826086
 40
0.7391304347826086
 40
0.7391304347826086
 40
0.7391304347826086
 40
0.782608695652174
 40
0.782608695652174
 40
0.782608695652174
 40
0.782608695652174
 40
0.8260869565217391
 40
0.8260869565217391
 40
0.8260869565217391
 40
0.8260869565217391
 40
0.8695652173913043
 40
0.8695652173913043
 40
0.8695652173913043
 40
0.8695652173913043
 40
0.9130434782608695
 40
0.9130434782608695
 40
0.9130434782608695
 40
0.9130434782608695
 40
1.0
 40
1.0
 40
1.0
 40
1.0
 10
-62.7981
 20
32.9129
 30
0.0
 10
-62.7981
 20
32.9129
 30
0.0
 10
-62.5907
 20
32.9302
 30
0.0
 10
-62.5907
 20
32.9302
 30
0.0
 10
-62.5907
 20
32.9302
 30
0.0
 10
-62.573
 20
32.8323
 30
0.0
 10
-62.5392
 20
32.7615
 30
0.0
 10
-62.4894
 20
32.7174
 30
0.0
 10
-62.4894
 20
32.7174
 30
0.0
 10
-62.4396
 20
32.6734
 30
0.0
 10
-62.3758
 20
32.6512
 30
0.0
 10
-62.2976
 20
32.6512
 30
0.0
 10
-62.2976
 20
32.6512
 30
0.0
 10
-62.2309
 20
32.6512
 30
0.0
 10
-62.1725
 20
32.6664
 30
0.0
 10
-62.1219
 20
32.6973
 30
0.0
 10
-62.1219
 20
32.6973
 30
0.0
 10
-62.0713
 20
32.7277
 30
0.0
 10
-62.0301
 20
32.7685
 30
0.0
 10
-61.9984
 20
32.8199
 30
0.0
 10
-61.9984
 20
32.8199
 30
0.0
 10
-61.9667
 20
32.8709
 30
0.0
 10
-61.94
 20
32.9401
 30
0.0
 10
-61.9182
 20
33.0269
 30
0.0
 10
-61.9182
 20
33.0269
 30
0.0
 10
-61.8963
 20
33.1138
 30
0.0
 10
-61.8856
 20
33.2023
 30
0.0
 10
-61.8856
 20
33.2924
 30
0.0
 10
-61.8856
 20
33.2924
 30
0.0
 10
-61.8856
 20
33.3019
 30
0.0
 10
-61.8861
 20
33.3167
 30
0.0
 10
-61.8869
 20
33.336
 30
0.0
 10
-61.8869
 20
33.336
 30
0.0
 10
-61.9301
 20
33.2669
 30
0.0
 10
-61.9894
 20
33.2105
 30
0.0
 10
-62.0643
 20
33.1677
 30
0.0
 10
-62.0643
 20
33.1677
 30
0.0
 10
-62.1392
 20
33.1245
 30
0.0
 10
-62.2207
 20
33.1031
 30
0.0
 10
-62.3079
 20
33.1031
 30
0.0
 10
-62.3079
 20
33.1031
 30
0.0
 10
-62.454
 20
33.1031
 30
0.0
 10
-62.5775
 20
33.1562
 30
0.0
 10
-62.6787
 20
33.2623
 30
0.0
 10
-62.6787
 20
33.2623
 30
0.0
 10
-62.7796
 20
33.3681
 30
0.0
 10
-62.8302
 20
33.508
 30
0.0
 10
-62.8302
 20
33.6817
 30
0.0
 10
-62.8302
 20
33.6817
 30
0.0
 10
-62.8302
 20
33.8612
 30
0.0
 10
-62.7775
 20
34.0052
 30
0.0
 10
-62.6717
 20
34.1147
 30
0.0
 10
-62.6717
 20
34.1147
 30
0.0
 10
-62.5664
 20
34.2238
 30
0.0
 10
-62.4343
 20
34.2785
 30
0.0
 10
-62.275
 20
34.2785
 30
0.0
 10
-62.275
 20
34.2785
 30
0.0
 10
-62.1606
 20
34.2785
 30
0.0
 10
-62.0556
 20
34.2476
 30
0.0
 10
-61.9601
 20
34.1855
 30
0.0
 10
-61.9601
 20
34.1855
 30
0.0
 10
-61.8651
 20
34.1237
 30
0.0
 10
-61.793
 20
34.0357
 30
0.0
 10
-61.7436
 20
33.9208
 30
0.0
 10
-61.7436
 20
33.9208
 30
0.0
 10
-61.6943
 20
33.8064
 30
0.0
 10
-61.6696
 20
33.6406
 30
0.0
 10
-61.6696
 20
33.4237
 30
0.0
 10
-61.6696
 20
33.4237
 30
0.0
 10
-61.6696
 20
33.1977
 30
0.0
 10
-61.6938
 20
33.0179
 30
0.0
 10
-61.7428
 20
32.8841
 30
0.0
 10
-61.7428
 20
32.8841
 30
0.0
 10
-61.7918
 20
32.7499
 30
0.0
 10
-61.8651
 20
32.6483
 30
0.0
 10
-61.9618
 20
32.5783
 30
0.0
 10
-61.9618
 20
32.5783
 30
0.0
 10
-62.0585
 20
32.5084
 30
0.0
 10
-62.1717
 20
32.4734
 30
0.0
 10
-62.3017
 20
32.4734
 30
0.0
 10
-62.3017
 20
32.4734
 30
0.0
 10
-62.44
 20
32.4734
 30
0.0
 10
-62.5528
 20
32.5116
 30
0.0
 10
-62.6405
 20
32.5886
 30
0.0
 10
-62.6405
 20
32.5886
 30
0.0
 10
-62.7277
 20
32.6656
 30
0.0
 10
-62.7804
 20
32.7738
 30
0.0
 10
-62.7981
 20
32.9129
 30
0.0
  0
SPLINE
  5
CB
330
1F
100
AcDbEntity
  8
0
 62
     1
100
AcDbSpline
210
0.0
220
0.0
230
1.0
 70
    11
 71
     3
 72
    36
 73
    32
 74
     0
 42
0.000000001
 43
0.0000000001
 40
0.0
 40
0.0
 40
0.0
 40
0.0
 40
0.1111111111111111
 40
0.1111111111111111
 40
0.1111111111111111
 40
0.1111111111111111
 40
0.2222222222222222
 40
0.2222222222222222
 40
0.2222222222222222
 40
0.2222222222222222
 40
0.3333333333333333
 40
0.3333333333333333
 40
0.3333333333333333
 40
0.3333333333333333
 40
0.4444444444444444
 40
0.4444444444444444
 40
0.4444444444444444
 40
0.4444444444444444
 40
0.5555555555555556
 40
0.5555555555555556
 40
0.5555555555555556
 40
0.5555555555555556
 40
0.6666666666666666
 40
0.6666666666666666
 40
0.6666666666666666
 40
0.6666666666666666
 40
0.7777777777777778
 40
0.7777777777777778
 40
0.7777777777777778
 40
0.7777777777777778
 40
1.0
 40
1.0
 40
1.0
 40
1.0
 10
-61.9116
 20
33.6928
 30
0.0
 10
-61.9116
 20
33.8171
 30
0.0
 10
-61.9445
 20
33.9159
 30
0.0
 10
-62.0103
 20
33.9888
 30
0.0
 10
-62.0103
 20
33.9888
 30
0.0
 10
-62.0758
 20
34.0616
 30
0.0
 10
-62.1556
 20
34.0982
 30
0.0
 10
-62.2495
 20
34.0982
 30
0.0
 10
-62.2495
 20
34.0982
 30
0.0
 10
-62.3466
 20
34.0982
 30
0.0
 10
-62.4306
 20
34.0591
 30
0.0
 10
-62.5013
 20
33.9805
 30
0.0
 10
-62.5013
 20
33.9805
 30
0.0
 10
-62.5725
 20
33.9019
 30
0.0
 10
-62.6079
 20
33.7998
 30
0.0
 10
-62.6079
 20
33.6747
 30
0.0
 10
-62.6079
 20
33.6747
 30
0.0
 10
-62.6079
 20
33.5624
 30
0.0
 10
-62.5742
 20
33.471
 30
0.0
 10
-62.5071
 20
33.401
 30
0.0
 10
-62.5071
 20
33.401
 30
0.0
 10
-62.4396
 20
33.3307
 30
0.0
 10
-62.3556
 20
33.2957
 30
0.0
 10
-62.2556
 20
33.2957
 30
0.0
 10
-62.2556
 20
33.2957
 30
0.0
 10
-62.1552
 20
33.2957
 30
0.0
 10
-62.0729
 20
33.3307
 30
0.0
 10
-62.0083
 20
33.401
 30
0.0
 10
-62.0083
 20
33.401
 30
0.0
 10
-61.9437
 20
33.471
 30
0.0
 10
-61.9116
 20
33.5685
 30
0.0
 10
-61.9116
 20
33.6928
 30
0.0
  0
SPLINE
  5
CC
330
1F
100
AcDbEntity
  8
0
 62
     1
100
AcDbSpline
210
0.0
220
0.0
230
1.0
 70
    11
 71
     3
 72
    52
 73
    48
 74
     0
 42
0.000000001
 43
0.0000000001
 40
0.0
 40
0.0
 40
0.0
 40
0.0
 40
0.0769230769230769
 40
0.0769230769230769
 40
0.0769230769230769
 40
0.0769230769230769
 40
0.1538461538461539
 40
0.1538461538461539
 40
0.1538461538461539
 40
0.1538461538461539
 40
0.2307692307692308
 40
0.2307692307692308
 40
0.2307692307692308
 40
0.2307692307692308
 40
0.3076923076923077
 40
0.3076923076923077
 40
0.3076923076923077
 40
0.3076923076923077
 40
0.3846153846153846
 40
0.3846153846153846
 40
0.3846153846153846
 40
0.3846153846153846
 40
0.4615384615384616
 40
0.4615384615384616
 40
0.4615384615384616
 40
0.4615384615384616
 40
0.5384615384615384
 40
0.5384615384615384
 40
0.5384615384615384
 40
0.5384615384615384
 40
0.6153846153846154
 40
0.6153846153846154
 40
0.6153846153846154
 40
0.6153846153846154
 40
0.6923076923076923
 40
0.6923076923076923
 40
0.6923076923076923
 40
0.6923076923076923
 40
0.7692307692307693
 40
0.7692307692307693
 40
0.7692307692307693
 40
0.7692307692307693
 40
0.8461538461538461
 40
0.8461538461538461
 40
0.8461538461538461
 40
0.8461538461538461
 40
1.0
 40
1.0
 40
1.0
 40
1.0
 10
-61.4568
 20
33.3755
 30
0.0
 10
-61.4568
 20
33.5842
 30
0.0
 10
-61.4354
 20
33.7529
 30
0.0
 10
-61.3926
 20
33.8805
 30
0.0
 10
-61.3926
 20
33.8805
 30
0.0
 10
-61.3494
 20
34.0085
 30
0.0
 10
-61.2856
 20
34.1069
 30
0.0
 10
-61.2008
 20
34.1756
 30
0.0
 10
-61.2008
 20
34.1756
 30
0.0
 10
-61.1164
 20
34.2443
 30
0.0
 10
-61.0098
 20
34.2785
 30
0.0
 10
-60.8814
 20
34.2785
 30
0.0
 10
-60.8814
 20
34.2785
 30
0.0
 10
-60.7868
 20
34.2785
 30
0.0
 10
-60.7036
 20
34.2596
 30
0.0
 10
-60.6316
 20
34.2213
 30
0.0
 10
-60.6316
 20
34.2213
 30
0.0
 10
-60.56
 20
34.183
 30
0.0
 10
-60.5007
 20
34.1279
 30
0.0
 10
-60.4546
 20
34.0558
 30
0.0
 10
-60.4546
 20
34.0558
 30
0.0
 10
-60.4085
 20
33.9842
 30
0.0
 10
-60.3723
 20
33.8966
 30
0.0
 10
-60.346
 20
33.7933
 30
0.0
 10
-60.346
 20
33.7933
 30
0.0
 10
-60.3192
 20
33.69
 30
0.0
 10
-60.306
 20
33.5504
 30
0.0
 10
-60.306
 20
33.3755
 30
0.0
 10
-60.306
 20
33.3755
 30
0.0
 10
-60.306
 20
33.1681
 30
0.0
 10
-60.3274
 20
33.0002
 30
0.0
 10
-60.3698
 20
32.8726
 30
0.0
 10
-60.3698
 20
32.8726
 30
0.0
 10
-60.4122
 20
32.7446
 30
0.0
 10
-60.476
 20
32.6462
 30
0.0
 10
-60.5608
 20
32.5771
 30
0.0
 10
-60.5608
 20
32.5771
 30
0.0
 10
-60.6452
 20
32.5079
 30
0.0
 10
-60.7522
 20
32.4734
 30
0.0
 10
-60.8814
 20
32.4734
 30
0.0
 10
-60.8814
 20
32.4734
 30
0.0
 10
-61.0514
 20
32.4734
 30
0.0
 10
-61.1852
 20
32.5339
 30
0.0
 10
-61.2823
 20
32.6553
 30
0.0
 10
-61.2823
 20
32.6553
 30
0.0
 10
-61.3988
 20
32.8034
 30
0.0
 10
-61.4568
 20
33.0434
 30
0.0
 10
-61.4568
 20
33.3755
 30
0.0
  0
SPLINE
  5
CD
330
1F
100
AcDbEntity
  8
0
 62
     1
100
AcDbSpline
210
0.0
220
0.0
230
1.0
 70
    11
 71
     3
 72
    36
 73
    32
 74
     0
 42
0.000000001
 43
0.0000000001
 40
0.0
 40
0.0
 40
0.0
 40
0.0
 40
0.1111111111111111
 40
0.1111111111111111
 40
0.1111111111111111
 40
0.1111111111111111
 40
0.2222222222222222
 40
0.2222222222222222
 40
0.2222222222222222
 40
0.2222222222222222
 40
0.3333333333333333
 40
0.3333333333333333
 40
0.3333333333333333
 40
0.3333333333333333
 40
0.4444444444444444
 40
0.4444444444444444
 40
0.4444444444444444
 40
0.4444444444444444
 40
0.5555555555555556
 40
0.5555555555555556
 40
0.5555555555555556
 40
0.5555555555555556
 40
0.6666666666666666
 40
0.6666666666666666
 40
0.6666666666666666
 40
0.6666666666666666
 40
0.7777777777777778
 40
0.7777777777777778
 40
0.7777777777777778
 40
0.7777777777777778
 40
1.0
 40
1.0
 40
1.0
 40
1.0
 10
-61.2345
 20
33.3747
 30
0.0
 10
-61.2345
 20
33.0837
 30
0.0
 10
-61.2008
 20
32.8903
 30
0.0
 10
-61.1329
 20
32.7948
 30
0.0
 10
-61.1329
 20
32.7948
 30
0.0
 10
-61.065
 20
32.6989
 30
0.0
 10
-60.981
 20
32.6512
 30
0.0
 10
-60.8814
 20
32.6512
 30
0.0
 10
-60.8814
 20
32.6512
 30
0.0
 10
-60.7818
 20
32.6512
 30
0.0
 10
-60.6979
 20
32.6993
 30
0.0
 10
-60.6299
 20
32.7952
 30
0.0
 10
-60.6299
 20
32.7952
 30
0.0
 10
-60.562
 20
32.8915
 30
0.0
 10
-60.5283
 20
33.0845
 30
0.0
 10
-60.5283
 20
33.3747
 30
0.0
 10
-60.5283
 20
33.3747
 30
0.0
 10
-60.5283
 20
33.6657
 30
0.0
 10
-60.562
 20
33.8591
 30
0.0
 10
-60.6299
 20
33.9546
 30
0.0
 10
-60.6299
 20
33.9546
 30
0.0
 10
-60.6974
 20
34.0505
 30
0.0
 10
-60.7822
 20
34.0982
 30
0.0
 10
-60.8839
 20
34.0982
 30
0.0
 10
-60.8839
 20
34.0982
 30
0.0
 10
-60.9835
 20
34.0982
 30
0.0
 10
-61.0633
 20
34.0558
 30
0.0
 10
-61.123
 20
33.9715
 30
0.0
 10
-61.123
 20
33.9715
 30
0.0
 10
-61.1975
 20
33.8641
 30
0.0
 10
-61.2345
 20
33.6649
 30
0.0
 10
-61.2345
 20
33.3747
 30
0.0
  0
SPLINE
  5
CE
330
1F
100
AcDbEntity
  8
0
 62
     1
100
AcDbSpline
210
0.0
220
0.0
230
1.0
 70
    11
 71
     3
 72
    92
 73
    88
 74
     0
 42
0.000000001
 43
0.0000000001
 40
0.0
 40
0.0
 40
0.0
 40
0.0
 40
0.0434782608695652
 40
0.0434782608695652
 40
0.0434782608695652
 40
0.0434782608695652
 40
0.0869565217391304
 40
0.0869565217391304
 40
0.0869565217391304
 40
0.0869565217391304
 40
0.1304347826086956
 40
0.1304347826086956
 40
0.1304347826086956
 40
0.1304347826086956
 40
0.1739130434782609
 40
0.1739130434782609
 40
0.1739130434782609
 40
0.1739130434782609
 40
0.2173913043478261
 40
0.2173913043478261
 40
0.2173913043478261
 40
0.2173913043478261
 40
0.2608695652173913
 40
0.2608695652173913
 40
0.2608695652173913
 40
0.2608695652173913
 40
0.3043478260869565
 40
0.3043478260869565
 40
0.3043478260869565
 40
0.3043478260869565
 40
0.3478260869565217
 40
0.3478260869565217
 40
0.3478260869565217
 40
0.3478260869565217
 40
0.391304347826087
 40
0.391304347826087
 40
0.391304347826087
 40
0.391304347826087
 40
0.4347826086956522
 40
0.4347826086956522
 40
0.4347826086956522
 40
0.4347826086956522
 40
0.4782608695652174
 40
0.4782608695652174
 40
0.4782608695652174
 40
0.4782608695652174
 40
0.5217391304347826
 40
0.5217391304347826
 40
0.5217391304347826
 40
0.5217391304347826
 40
0.5652173913043478
 40
0.5652173913043478
 40
0.5652173913043478
 40
0.5652173913043478
 40
0.6086956521739131
 40
0.6086956521739131
 40
0.6086956521739131
 40
0.6086956521739131
 40
0.6521739130434783
 40
0.6521739130434783
 40
0.6521739130434783
 40
0.6521739130434783
 40
0.6956521739130435
 40
0.6956521739130435
 40
0.6956521739130435
 40
0.6956521739130435
 40
0.7391304347826086
 40
0.7391304347826086
 40
0.7391304347826086
 40
0.7391304347826086
 40
0.782608695652174
 40
0.782608695652174
 40
0.782608695652174
 40
0.782608695652174
 40
0.8260869565217391
 40
0.8260869565217391
 40
0.8260869565217391
 40
0.8260869565217391
 40
0.8695652173913043
 40
0.8695652173913043
 40
0.8695652173913043
 40
0.8695652173913043
 40
0.9130434782608695
 40
0.9130434782608695
 40
0.9130434782608695
 40
0.9130434782608695
 40
1.0
 40
1.0
 40
1.0
 40
1.0
 10
-60.0834
 20
32.9672
 30
0.0
 10
-60.0834
 20
32.9672
 30
0.0
 10
-59.8562
 20
32.9845
 30
0.0
 10
-59.8562
 20
32.9845
 30
0.0
 10
-59.8562
 20
32.9845
 30
0.0
 10
-59.8393
 20
32.8738
 30
0.0
 10
-59.8002
 20
32.7907
 30
0.0
 10
-59.7393
 20
32.7347
 30
0.0
 10
-59.7393
 20
32.7347
 30
0.0
 10
-59.6784
 20
32.6792
 30
0.0
 10
-59.6039
 20
32.6512
 30
0.0
 10
-59.5162
 20
32.6512
 30
0.0
 10
-59.5162
 20
32.6512
 30
0.0
 10
-59.4105
 20
32.6512
 30
0.0
 10
-59.322
 20
32.6907
 30
0.0
 10
-59.25
 20
32.7693
 30
0.0
 10
-59.25
 20
32.7693
 30
0.0
 10
-59.1784
 20
32.8483
 30
0.0
 10
-59.1425
 20
32.9528
 30
0.0
 10
-59.1425
 20
33.0829
 30
0.0
 10
-59.1425
 20
33.0829
 30
0.0
 10
-59.1425
 20
33.2068
 30
0.0
 10
-59.1767
 20
33.3043
 30
0.0
 10
-59.2454
 20
33.3759
 30
0.0
 10
-59.2454
 20
33.3759
 30
0.0
 10
-59.3142
 20
33.4475
 30
0.0
 10
-59.4051
 20
33.4834
 30
0.0
 10
-59.5183
 20
33.4834
 30
0.0
 10
-59.5183
 20
33.4834
 30
0.0
 10
-59.5887
 20
33.4834
 30
0.0
 10
-59.6517
 20
33.4673
 30
0.0
 10
-59.7076
 20
33.4352
 30
0.0
 10
-59.7076
 20
33.4352
 30
0.0
 10
-59.7632
 20
33.4031
 30
0.0
 10
-59.8068
 20
33.3615
 30
0.0
 10
-59.8389
 20
33.3105
 30
0.0
 10
-59.8389
 20
33.3105
 30
0.0
 10
-59.8389
 20
33.3105
 30
0.0
 10
-60.0439
 20
33.3401
 30
0.0
 10
-60.0439
 20
33.3401
 30
0.0
 10
-60.0439
 20
33.3401
 30
0.0
 10
-60.0439
 20
33.3401
 30
0.0
 10
-59.8735
 20
34.2489
 30
0.0
 10
-59.8735
 20
34.2489
 30
0.0
 10
-59.8735
 20
34.2489
 30
0.0
 10
-59.8735
 20
34.2489
 30
0.0
 10
-58.9968
 20
34.2489
 30
0.0
 10
-58.9968
 20
34.2489
 30
0.0
 10
-58.9968
 20
34.2489
 30
0.0
 10
-58.9968
 20
34.2489
 30
0.0
 10
-58.9968
 20
34.0414
 30
0.0
 10
-58.9968
 20
34.0414
 30
0.0
 10
-58.9968
 20
34.0414
 30
0.0
 10
-58.9968
 20
34.0414
 30
0.0
 10
-59.7002
 20
34.0414
 30
0.0
 10
-59.7002
 20
34.0414
 30
0.0
 10
-59.7002
 20
34.0414
 30
0.0
 10
-59.7002
 20
34.0414
 30
0.0
 10
-59.7945
 20
33.5644
 30
0.0
 10
-59.7945
 20
33.5644
 30
0.0
 10
-59.7945
 20
33.5644
 30
0.0
 10
-59.6887
 20
33.6389
 30
0.0
 10
-59.5776
 20
33.676
 30
0.0
 10
-59.4615
 20
33.676
 30
0.0
 10
-59.4615
 20
33.676
 30
0.0
 10
-59.3076
 20
33.676
 30
0.0
 10
-59.1775
 20
33.6225
 30
0.0
 10
-59.0718
 20
33.5155
 30
0.0
 10
-59.0718
 20
33.5155
 30
0.0
 10
-58.966
 20
33.4084
 30
0.0
 10
-58.9129
 20
33.271
 30
0.0
 10
-58.9129
 20
33.1031
 30
0.0
 10
-58.9129
 20
33.1031
 30
0.0
 10
-58.9129
 20
32.943
 30
0.0
 10
-58.9594
 20
32.8047
 30
0.0
 10
-59.0524
 20
32.6882
 30
0.0
 10
-59.0524
 20
32.6882
 30
0.0
 10
-59.1656
 20
32.545
 30
0.0
 10
-59.3203
 20
32.4734
 30
0.0
 10
-59.5162
 20
32.4734
 30
0.0
 10
-59.5162
 20
32.4734
 30
0.0
 10
-59.6768
 20
32.4734
 30
0.0
 10
-59.8076
 20
32.5186
 30
0.0
 10
-59.9093
 20
32.6088
 30
0.0
 10
-59.9093
 20
32.6088
 30
0.0
 10
-60.0109
 20
32.6989
 30
0.0
 10
-60.069
 20
32.8183
 30
0.0
 10
-60.0834
 20
32.9672
 30
0.0
  0
ENDSEC
  0
SECTION
  2
OBJECTS
  0
DICTIONARY
  5
C
330
0
100
AcDbDictionary
281
     1
  3
ACAD_DETAILVIEWSTYLE
350
10A
  3
ACAD_GROUP
350
D
  3
ACAD_LAYOUT
350
1A
  3
ACAD_MATERIAL
350
43
  3
ACAD_MLEADERSTYLE
350
6B
  3
ACAD_MLINESTYLE
350
17
  3
ACAD_PLOTSETTINGS
350
19
  3
ACAD_PLOTSTYLENAME
350
E
  3
ACAD_SCALELIST
350
47
  3
ACAD_SECTIONVIEWSTYLE
350
10B
  3
ACAD_TABLESTYLE
350
69
  3
ACAD_VISUALSTYLE
350
2A
  3
ACDB_RECOMPOSE_DATA
350
107
  3
AcDbVariableDictionary
350
CF
  0
SUN
  5
6D
330
29
100
AcDbSun
 90
        1
290
     0
 63
     7
421
 16777215
 40
1.0
291
     1
 91
  2455826
 92
 54000000
292
     0
 70
     2
 71
   256
280
     1
  0
DICTIONARY
  5
10A
102
{ACAD_REACTORS
330
C
102
}
330
C
100
AcDbDictionary
281
     1
  0
DICTIONARY
  5
D
102
{ACAD_REACTORS
330
C
102
}
330
C
100
AcDbDictionary
281
     1
  0
DICTIONARY
  5
1A
102
{ACAD_REACTORS
330
C
102
}
330
C
100
AcDbDictionary
281
     1
  3
Layout1
350
1E
  3
Layout2
350
26
  3
Model
350
22
  0
DICTIONARY
  5
43
102
{ACAD_REACTORS
330
C
102
}
330
C
100
AcDbDictionary
281
     1
  3
ByBlock
350
45
  3
ByLayer
350
44
  3
Global
350
46
  0
DICTIONARY
  5
6B
102
{ACAD_REACTORS
330
C
102
}
330
C
100
AcDbDictionary
281
     1
  3
Standard
350
6C
  0
DICTIONARY
  5
17
102
{ACAD_REACTORS
330
C
102
}
330
C
100
AcDbDictionary
281
     1
  3
Standard
350
18
  0
DICTIONARY
  5
19
102
{ACAD_REACTORS
330
C
102
}
330
C
100
AcDbDictionary
281
     1
  0
ACDBDICTIONARYWDFLT
  5
E
102
{ACAD_REACTORS
330
C
102
}
330
C
100
AcDbDictionary
281
     1
  3
Normal
350
F
100
AcDbDictionaryWithDefault
340
F
  0
DICTIONARY
  5
47
102
{ACAD_REACTORS
330
C
102
}
330
C
100
AcDbDictionary
281
     1
  3
A0
350
48
  3
A1
350
49
  3
A2
350
4A
  3
A3
350
4B
  3
A4
350
4C
  3
A5
350
4D
  3
A6
350
4E
  3
A7
350
4F
  3
A8
350
50
  3
A9
350
51
  3
B0
350
52
  3
B1
350
53
  3
B2
350
54
  3
B3
350
55
  3
B4
350
56
  3
B5
350
57
  3
B6
350
58
  3
B7
350
59
  3
B8
350
5A
  3
B9
350
5B
  3
C0
350
5C
  3
C1
350
5D
  3
C2
350
5E
  3
C3
350
5F
  3
C4
350
60
  3
C5
350
61
  3
C6
350
62
  3
C7
350
63
  3
C8
350
64
  3
C9
350
65
  3
D0
350
66
  3
D1
350
67
  3
D2
350
68
  0
DICTIONARY
  5
10B
102
{ACAD_REACTORS
330
C
102
}
330
C
100
AcDbDictionary
281
     1
  0
DICTIONARY
  5
69
102
{ACAD_REACTORS
330
C
102
}
330
C
100
AcDbDictionary
281
     1
  3
Standard
350
6A
  0
DICTIONARY
  5
2A
102
{ACAD_REACTORS
330
C
102
}
330
C
100
AcDbDictionary
281
     1
  3
2dWireframe
350
2F
  3
Basic
350
32
  3
Brighten
350
36
  3
ColorChange
350
3A
  3
Conceptual
350
34
  3
Dim
350
35
  3
EdgeColorOff
350
3D
  3
Facepattern
350
39
  3
Flat
350
2B
  3
FlatWithEdges
350
2C
  3
Gouraud
350
2D
  3
GouraudWithEdges
350
2E
  3
Hidden
350
31
  3
JitterOff
350
3B
  3
Linepattern
350
38
  3
OverhangOff
350
3C
  3
Realistic
350
33
  3
Shaded
350
42
  3
Shaded with edges
350
41
  3
Shades of Gray
350
3E
  3
Sketchy
350
3F
  3
Thicken
350
37
  3
Wireframe
350
30
  3
X-Ray
350
40
  0
XRECORD
  5
107
102
{ACAD_REACTORS
330
C
102
}
330
C
100
AcDbXrecord
280
     1
 90
        1
330
6A
  0
DICTIONARY
  5
CF
102
{ACAD_REACTORS
330
C
102
}
330
C
100
AcDbDictionary
281
     1
  3
CANNOSCALE
350
D0
  3
CMLEADERSTYLE
350
109
  3
CTABLESTYLE
350
108
  3
XCLIPFRAME
350
D1
  0
LAYOUT
  5
1E
102
{ACAD_REACTORS
330
1A
102
}
330
1A
100
AcDbPlotSettings
  1

  2
none_device
  4

  6

 40
0.0
 41
0.0
 42
0.0
 43
0.0
 44
0.0
 45
0.0
 46
0.0
 47
0.0
 48
0.0
 49
0.0
140
0.0
141
0.0
142
1.0
143
1.0
 70
   688
 72
     0
 73
     0
 74
     5
  7

 75
    16
 76
     0
 77
     2
 78
   300
147
1.0
148
0.0
149
0.0
100
AcDbLayout
  1
Layout1
 70
     1
 71
     1
 10
0.0
 20
0.0
 11
12.0
 21
9.0
 12
0.0
 22
0.0
 32
0.0
 14
1.000000000000000E+20
 24
1.000000000000000E+20
 34
1.000000000000000E+20
 15
-1.000000000000000E+20
 25
-1.000000000000000E+20
 35
-1.000000000000000E+20
146
0.0
 13
0.0
 23
0.0
 33
0.0
 16
1.0
 26
0.0
 36
0.0
 17
0.0
 27
1.0
 37
0.0
 76
     0
330
1B
  0
LAYOUT
  5
26
102
{ACAD_REACTORS
330
1A
102
}
330
1A
100
AcDbPlotSettings
  1

  2
none_device
  4

  6

 40
0.0
 41
0.0
 42
0.0
 43
0.0
 44
0.0
 45
0.0
 46
0.0
 47
0.0
 48
0.0
 49
0.0
140
0.0
141
0.0
142
1.0
143
1.0
 70
   688
 72
     0
 73
     0
 74
     5
  7

 75
    16
 76
     0
 77
     2
 78
   300
147
1.0
148
0.0
149
0.0
100
AcDbLayout
  1
Layout2
 70
     1
 71
     2
 10
0.0
 20
0.0
 11
0.0
 21
0.0
 12
0.0
 22
0.0
 32
0.0
 14
0.0
 24
0.0
 34
0.0
 15
0.0
 25
0.0
 35
0.0
146
0.0
 13
0.0
 23
0.0
 33
0.0
 16
1.0
 26
0.0
 36
0.0
 17
0.0
 27
1.0
 37
0.0
 76
     0
330
23
  0
LAYOUT
  5
22
102
{ACAD_REACTORS
330
1A
102
}
330
1A
100
AcDbPlotSettings
  1

  2
none_device
  4
Letter_(8.50_x_11.00_Inches)
  6

 40
6.35
 41
6.35
 42
6.35000508
 43
6.35000508
 44
215.9
 45
279.4
 46
0.0
 47
0.0
 48
0.0
 49
0.0
140
0.0
141
0.0
142
1.0
143
1.0
 70
  1712
 72
     0
 73
     0
 74
     0
  7

 75
     0
 76
     0
 77
     2
 78
   300
147
1.0
148
0.0
149
0.0
100
AcDbLayout
  1
Model
 70
     1
 71
     0
 10
0.0
 20
0.0
 11
12.0
 21
9.0
 12
0.0
 22
0.0
 32
0.0
 14
-111.6762
 24
31.5468
 34
0.0
 15
-55.6
 25
87.623
 35
0.0
146
0.0
 13
0.0
 23
0.0
 33
0.0
 16
1.0
 26
0.0
 36
0.0
 17
0.0
 27
1.0
 37
0.0
 76
     0
330
1F
331
29
  0
MATERIAL
  5
45
102
{ACAD_REACTORS
330
43
102
}
330
43
100
AcDbMaterial
  1
ByBlock
 72
     1
 94
      127
  0
MATERIAL
  5
44
102
{ACAD_REACTORS
330
43
102
}
330
43
100
AcDbMaterial
  1
ByLayer
 72
     1
 94
      127
  0
MATERIAL
  5
46
102
{ACAD_REACTORS
330
43
102
}
330
43
100
AcDbMaterial
  1
Global
 72
     1
 94
      127
  0
MLEADERSTYLE
  5
6C
102
{ACAD_REACTORS
330
6B
102
}
102
{ACAD_XDICTIONARY
360
105
102
}
330
6B
100
AcDbMLeaderStyle
170
     2
171
     1
172
     0
 90
        2
 40
0.0
 41
0.0
173
     1
 91
-1056964608
340
14
 92
       -2
290
     1
 42
0.09
291
     1
 43
0.36
  3
Standard
341
0
 44
0.18
300

342
11
174
     1
178
     6
175
     1
176
     0
 93
-1056964608
 45
0.18
292
     0
297
     0
 46
0.18
343
0
 94
-1056964608
 47
1.0
 49
1.0
140
1.0
293
     1
141
0.0
294
     1
177
     0
142
1.0
295
     0
296
     0
143
0.125
1001
ACAD_MLEADERVER
1070
     2
  0
MLINESTYLE
  5
18
102
{ACAD_REACTORS
330
17
102
}
330
17
100
AcDbMlineStyle
  2
Standard
 70
     0
  3

 62
   256
 51
90.0
 52
90.0
 71
     2
 49
0.5
 62
   256
  6
BYLAYER
 49
-0.5
 62
   256
  6
BYLAYER
  0
ACDBPLACEHOLDER
  5
F
102
{ACAD_REACTORS
330
E
102
}
330
E
  0
SCALE
  5
48
102
{ACAD_REACTORS
330
47
102
}
330
47
100
AcDbScale
 70
     0
300
1:1
140
1.0
141
1.0
290
     1
  0
SCALE
  5
49
102
{ACAD_REACTORS
330
47
102
}
330
47
100
AcDbScale
 70
     0
300
1:2
140
1.0
141
2.0
290
     0
  0
SCALE
  5
4A
102
{ACAD_REACTORS
330
47
102
}
330
47
100
AcDbScale
 70
     0
300
1:4
140
1.0
141
4.0
290
     0
  0
SCALE
  5
4B
102
{ACAD_REACTORS
330
47
102
}
330
47
100
AcDbScale
 70
     0
300
1:5
140
1.0
141
5.0
290
     0
  0
SCALE
  5
4C
102
{ACAD_REACTORS
330
47
102
}
330
47
100
AcDbScale
 70
     0
300
1:8
140
1.0
141
8.0
290
     0
  0
SCALE
  5
4D
102
{ACAD_REACTORS
330
47
102
}
330
47
100
AcDbScale
 70
     0
300
1:10
140
1.0
141
10.0
290
     0
  0
SCALE
  5
4E
102
{ACAD_REACTORS
330
47
102
}
330
47
100
AcDbScale
 70
     0
300
1:16
140
1.0
141
16.0
290
     0
  0
SCALE
  5
4F
102
{ACAD_REACTORS
330
47
102
}
330
47
100
AcDbScale
 70
     0
300
1:20
140
1.0
141
20.0
290
     0
  0
SCALE
  5
50
102
{ACAD_REACTORS
330
47
102
}
330
47
100
AcDbScale
 70
     0
300
1:30
140
1.0
141
30.0
290
     0
  0
SCALE
  5
51
102
{ACAD_REACTORS
330
47
102
}
330
47
100
AcDbScale
 70
     0
300
1:40
140
1.0
141
40.0
290
     0
  0
SCALE
  5
52
102
{ACAD_REACTORS
330
47
102
}
330
47
100
AcDbScale
 70
     0
300
1:50
140
1.0
141
50.0
290
     0
  0
SCALE
  5
53
102
{ACAD_REACTORS
330
47
102
}
330
47
100
AcDbScale
 70
     0
300
1:100
140
1.0
141
100.0
290
     0
  0
SCALE
  5
54
102
{ACAD_REACTORS
330
47
102
}
330
47
100
AcDbScale
 70
     0
300
2:1
140
2.0
141
1.0
290
     0
  0
SCALE
  5
55
102
{ACAD_REACTORS
330
47
102
}
330
47
100
AcDbScale
 70
     0
300
4:1
140
4.0
141
1.0
290
     0
  0
SCALE
  5
56
102
{ACAD_REACTORS
330
47
102
}
330
47
100
AcDbScale
 70
     0
300
8:1
140
8.0
141
1.0
290
     0
  0
SCALE
  5
57
102
{ACAD_REACTORS
330
47
102
}
330
47
100
AcDbScale
 70
     0
300
10:1
140
10.0
141
1.0
290
     0
  0
SCALE
  5
58
102
{ACAD_REACTORS
330
47
102
}
330
47
100
AcDbScale
 70
     0
300
100:1
140
100.0
141
1.0
290
     0
  0
SCALE
  5
59
102
{ACAD_REACTORS
330
47
102
}
330
47
100
AcDbScale
 70
     0
300
1/128" = 1'-0"
140
0.0078125
141
12.0
290
     0
  0
SCALE
  5
5A
102
{ACAD_REACTORS
330
47
102
}
330
47
100
AcDbScale
 70
     0
300
1/64" = 1'-0"
140
0.015625
141
12.0
290
     0
  0
SCALE
  5
5B
102
{ACAD_REACTORS
330
47
102
}
330
47
100
AcDbScale
 70
     0
300
1/32" = 1'-0"
140
0.03125
141
12.0
290
     0
  0
SCALE
  5
5C
102
{ACAD_REACTORS
330
47
102
}
330
47
100
AcDbScale
 70
     0
300
1/16" = 1'-0"
140
0.0625
141
12.0
290
     0
  0
SCALE
  5
5D
102
{ACAD_REACTORS
330
47
102
}
330
47
100
AcDbScale
 70
     0
300
3/32" = 1'-0"
140
0.09375
141
12.0
290
     0
  0
SCALE
  5
5E
102
{ACAD_REACTORS
330
47
102
}
330
47
100
AcDbScale
 70
     0
300
1/8" = 1'-0"
140
0.125
141
12.0
290
     0
  0
SCALE
  5
5F
102
{ACAD_REACTORS
330
47
102
}
330
47
100
AcDbScale
 70
     0
300
3/16" = 1'-0"
140
0.1875
141
12.0
290
     0
  0
SCALE
  5
60
102
{ACAD_REACTORS
330
47
102
}
330
47
100
AcDbScale
 70
     0
300
1/4" = 1'-0"
140
0.25
141
12.0
290
     0
  0
SCALE
  5
61
102
{ACAD_REACTORS
330
47
102
}
330
47
100
AcDbScale
 70
     0
300
3/8" = 1'-0"
140
0.375
141
12.0
290
     0
  0
SCALE
  5
62
102
{ACAD_REACTORS
330
47
102
}
330
47
100
AcDbScale
 70
     0
300
1/2" = 1'-0"
140
0.5
141
12.0
290
     0
  0
SCALE
  5
63
102
{ACAD_REACTORS
330
47
102
}
330
47
100
AcDbScale
 70
     0
300
3/4" = 1'-0"
140
0.75
141
12.0
290
     0
  0
SCALE
  5
64
102
{ACAD_REACTORS
330
47
102
}
330
47
100
AcDbScale
 70
     0
300
1" = 1'-0"
140
1.0
141
12.0
290
     0
  0
SCALE
  5
65
102
{ACAD_REACTORS
330
47
102
}
330
47
100
AcDbScale
 70
     0
300
1-1/2" = 1'-0"
140
1.5
141
12.0
290
     0
  0
SCALE
  5
66
102
{ACAD_REACTORS
330
47
102
}
330
47
100
AcDbScale
 70
     0
300
3" = 1'-0"
140
3.0
141
12.0
290
     0
  0
SCALE
  5
67
102
{ACAD_REACTORS
330
47
102
}
330
47
100
AcDbScale
 70
     0
300
6" = 1'-0"
140
6.0
141
12.0
290
     0
  0
SCALE
  5
68
102
{ACAD_REACTORS
330
47
102
}
330
47
100
AcDbScale
 70
     0
300
1'-0" = 1'-0"
140
12.0
141
12.0
290
     0
  0
TABLESTYLE
  5
6A
102
{ACAD_REACTORS
330
69
102
}
102
{ACAD_XDICTIONARY
360
102
102
}
330
69
100
AcDbTableStyle
  3
Standard
 70
     0
 71
     0
 40
0.06
 41
0.06
280
     0
281
     0
  7
Standard
140
0.18
170
     2
 62
     0
 63
   257
283
     0
 90
        4
 91
        0
  1

274
    -2
284
     1
 64
     0
275
    -2
285
     1
 65
     0
276
    -2
286
     1
 66
     0
277
    -2
287
     1
 67
     0
278
    -2
288
     1
 68
     0
279
    -2
289
     1
 69
     0
  7
Standard
140
0.25
170
     5
 62
     0
 63
   257
283
     0
 90
        4
 91
        0
  1

274
    -2
284
     1
 64
     0
275
    -2
285
     1
 65
     0
276
    -2
286
     1
 66
     0
277
    -2
287
     1
 67
     0
278
    -2
288
     1
 68
     0
279
    -2
289
     1
 69
     0
  7
Standard
140
0.18
170
     5
 62
     0
 63
   257
283
     0
 90
        4
 91
        0
  1

274
    -2
284
     1
 64
     0
275
    -2
285
     1
 65
     0
276
    -2
286
     1
 66
     0
277
    -2
287
     1
 67
     0
278
    -2
288
     1
 68
     0
279
    -2
289
     1
 69
     0
  0
VISUALSTYLE
  5
2F
102
{ACAD_REACTORS
330
2A
102
}
102
{ACAD_XDICTIONARY
360
DA
102
}
330
2A
100
AcDbVisualStyle
  2
2dWireframe
 70
     4
 71
     0
 72
     2
 73
     0
 90
        0
 40
0.6
 41
30.0
 62
     5
 63
     7
421
 16777215
 74
     1
 91
        4
 64
     7
 65
   257
 75
     1
175
     1
 42
1.0
 92
        0
 66
   257
 43
1.0
 76
     1
 77
     6
 78
     2
 67
     7
 79
     5
170
     0
171
     0
290
     0
174
     0
 93
        1
 44
0.0
173
     0
291
     0
 45
0.0
  0
VISUALSTYLE
  5
32
102
{ACAD_REACTORS
330
2A
102
}
102
{ACAD_XDICTIONARY
360
E0
102
}
330
2A
100
AcDbVisualStyle
  2
Basic
 70
     7
 71
     1
 72
     0
 73
     1
 90
        0
 40
0.6
 41
30.0
 62
     5
 63
     7
421
 16777215
 74
     0
 91
        4
 64
     7
 65
   257
 75
     1
175
     1
 42
1.0
 92
        8
 66
     7
 43
1.0
 76
     1
 77
     6
 78
     2
 67
     7
 79
     5
170
     0
171
     0
290
     0
174
     0
 93
        1
 44
0.0
173
     0
291
     1
 45
0.0
  0
VISUALSTYLE
  5
36
102
{ACAD_REACTORS
330
2A
102
}
102
{ACAD_XDICTIONARY
360
E8
102
}
330
2A
100
AcDbVisualStyle
  2
Brighten
 70
    12
 71
     2
 72
     2
 73
     0
 90
        0
 40
0.6
 41
30.0
 62
     5
 63
     7
421
 16777215
 74
     1
 91
        4
 64
     7
 65
   257
 75
     1
175
     1
 42
1.0
 92
        8
 66
     7
 43
1.0
 76
     1
 77
     6
 78
     2
 67
     7
 79
     5
170
     0
171
     0
290
     0
174
     0
 93
        1
 44
50.0
173
     0
291
     1
 45
0.0
  0
VISUALSTYLE
  5
3A
102
{ACAD_REACTORS
330
2A
102
}
102
{ACAD_XDICTIONARY
360
F0
102
}
330
2A
100
AcDbVisualStyle
  2
ColorChange
 70
    16
 71
     2
 72
     2
 73
     3
 90
        0
 40
0.6
 41
30.0
 62
     5
 63
     8
421
  8421504
 74
     1
 91
        4
 64
     7
 65
   257
 75
     1
175
     1
 42
1.0
 92
        8
 66
     8
424
  8421504
 43
1.0
 76
     1
 77
     6
 78
     2
 67
     7
 79
     5
170
     0
171
     0
290
     0
174
     0
 93
        1
 44
0.0
173
     0
291
     1
 45
0.0
  0
VISUALSTYLE
  5
34
102
{ACAD_REACTORS
330
2A
102
}
102
{ACAD_XDICTIONARY
360
E4
102
}
330
2A
100
AcDbVisualStyle
  2
Conceptual
 70
     9
 71
     3
 72
     2
 73
     0
 90
        0
 40
0.6
 41
30.0
 62
     5
 63
     7
421
 16777215
 74
     2
 91
        2
 64
     7
 65
   257
 75
     1
175
     1
 42
179.0
 92
        8
 66
     7
 43
1.0
 76
     1
 77
     6
 78
     2
 67
     7
 79
     3
170
     0
171
     0
290
     0
174
     0
 93
        1
 44
0.0
173
     0
291
     0
 45
0.0
  0
VISUALSTYLE
  5
35
102
{ACAD_REACTORS
330
2A
102
}
102
{ACAD_XDICTIONARY
360
E6
102
}
330
2A
100
AcDbVisualStyle
  2
Dim
 70
    11
 71
     2
 72
     2
 73
     0
 90
        0
 40
0.6
 41
30.0
 62
     5
 63
     7
421
 16777215
 74
     1
 91
        4
 64
     7
 65
   257
 75
     1
175
     1
 42
1.0
 92
        8
 66
     7
 43
1.0
 76
     1
 77
     6
 78
     2
 67
     7
 79
     5
170
     0
171
     0
290
     0
174
     0
 93
        1
 44
-50.0
173
     0
291
     1
 45
0.0
  0
VISUALSTYLE
  5
3D
102
{ACAD_REACTORS
330
2A
102
}
102
{ACAD_XDICTIONARY
360
F6
102
}
330
2A
100
AcDbVisualStyle
  2
EdgeColorOff
 70
    22
 71
     2
 72
     2
 73
     0
 90
        0
 40
0.6
 41
30.0
 62
     5
 63
     7
421
 16777215
 74
     1
 91
        4
 64
     7
 65
   257
 75
     1
175
     1
 42
1.0
 92
        8
 66
     7
 43
1.0
 76
     1
 77
     6
 78
     2
 67
     7
 79
     5
170
     0
171
     0
290
     0
174
     0
 93
        1
 44
0.0
173
     0
291
     1
 45
0.0
  0
VISUALSTYLE
  5
39
102
{ACAD_REACTORS
330
2A
102
}
102
{ACAD_XDICTIONARY
360
EE
102
}
330
2A
100
AcDbVisualStyle
  2
Facepattern
 70
    15
 71
     2
 72
     2
 73
     0
 90
        0
 40
0.6
 41
30.0
 62
     5
 63
     7
421
 16777215
 74
     1
 91
        4
 64
     7
 65
   257
 75
     1
175
     1
 42
1.0
 92
        8
 66
     7
 43
1.0
 76
     1
 77
     6
 78
     2
 67
     7
 79
     5
170
     0
171
     0
290
     0
174
     0
 93
        1
 44
0.0
173
     0
291
     1
 45
0.0
  0
VISUALSTYLE
  5
2B
102
{ACAD_REACTORS
330
2A
102
}
102
{ACAD_XDICTIONARY
360
D2
102
}
330
2A
100
AcDbVisualStyle
  2
Flat
 70
     0
 71
     2
 72
     1
 73
     1
 90
        2
 40
0.6
 41
30.0
 62
     5
 63
     7
421
 16777215
 74
     0
 91
        0
 64
     7
 65
   257
 75
     1
175
     1
 42
1.0
 92
        8
 66
     7
 43
1.0
 76
     1
 77
     6
 78
     2
 67
     7
 79
     5
170
     0
171
     0
290
     0
174
     0
 93
       13
 44
0.0
173
     0
291
     1
 45
0.0
  0
VISUALSTYLE
  5
2C
102
{ACAD_REACTORS
330
2A
102
}
102
{ACAD_XDICTIONARY
360
D4
102
}
330
2A
100
AcDbVisualStyle
  2
FlatWithEdges
 70
     1
 71
     2
 72
     1
 73
     1
 90
        2
 40
0.6
 41
30.0
 62
     5
 63
     7
421
 16777215
 74
     1
 91
        0
 64
     7
 65
   257
 75
     1
175
     1
 42
1.0
 92
        0
 66
   257
 43
1.0
 76
     1
 77
     6
 78
     2
 67
     7
 79
     5
170
     0
171
     0
290
     0
174
     0
 93
       13
 44
0.0
173
     0
291
     1
 45
0.0
  0
VISUALSTYLE
  5
2D
102
{ACAD_REACTORS
330
2A
102
}
102
{ACAD_XDICTIONARY
360
D6
102
}
330
2A
100
AcDbVisualStyle
  2
Gouraud
 70
     2
 71
     2
 72
     2
 73
     1
 90
        2
 40
0.6
 41
30.0
 62
     5
 63
     7
421
 16777215
 74
     0
 91
        0
 64
     7
 65
   257
 75
     1
175
     1
 42
1.0
 92
        0
 66
     7
 43
1.0
 76
     1
 77
     6
 78
     2
 67
     7
 79
     5
170
     0
171
     0
290
     0
174
     0
 93
       13
 44
0.0
173
     0
291
     1
 45
0.0
  0
VISUALSTYLE
  5
2E
102
{ACAD_REACTORS
330
2A
102
}
102
{ACAD_XDICTIONARY
360
D8
102
}
330
2A
100
AcDbVisualStyle
  2
GouraudWithEdges
 70
     3
 71
     2
 72
     2
 73
     1
 90
        2
 40
0.6
 41
30.0
 62
     5
 63
     7
421
 16777215
 74
     1
 91
        0
 64
     7
 65
   257
 75
     1
175
     1
 42
1.0
 92
        0
 66
   257
 43
1.0
 76
     1
 77
     6
 78
     2
 67
     7
 79
     5
170
     0
171
     0
290
     0
174
     0
 93
       13
 44
0.0
173
     0
291
     1
 45
0.0
  0
VISUALSTYLE
  5
31
102
{ACAD_REACTORS
330
2A
102
}
102
{ACAD_XDICTIONARY
360
DE
102
}
330
2A
100
AcDbVisualStyle
  2
Hidden
 70
     6
 71
     1
 72
     2
 73
     2
 90
        0
 40
0.6
 41
30.0
 62
     5
 63
     7
421
 16777215
 74
     2
 91
        2
 64
     7
 65
   257
 75
     2
175
     1
 42
40.0
 92
        0
 66
   257
 43
1.0
 76
     1
 77
     6
 78
     2
 67
     7
 79
     3
170
     0
171
     0
290
     0
174
     0
 93
        1
 44
0.0
173
     0
291
     0
 45
0.0
  0
VISUALSTYLE
  5
3B
102
{ACAD_REACTORS
330
2A
102
}
102
{ACAD_XDICTIONARY
360
F2
102
}
330
2A
100
AcDbVisualStyle
  2
JitterOff
 70
    20
 71
     2
 72
     2
 73
     0
 90
        0
 40
0.6
 41
30.0
 62
     5
 63
     7
421
 16777215
 74
     1
 91
        4
 64
     7
 65
   257
 75
     1
175
     1
 42
1.0
 92
       10
 66
     7
 43
1.0
 76
     1
 77
     6
 78
     2
 67
     7
 79
     5
170
     0
171
     0
290
     0
174
     0
 93
        1
 44
0.0
173
     0
291
     1
 45
0.0
  0
VISUALSTYLE
  5
38
102
{ACAD_REACTORS
330
2A
102
}
102
{ACAD_XDICTIONARY
360
EC
102
}
330
2A
100
AcDbVisualStyle
  2
Linepattern
 70
    14
 71
     2
 72
     2
 73
     0
 90
        0
 40
0.6
 41
30.0
 62
     5
 63
     7
421
 16777215
 74
     1
 91
        4
 64
     7
 65
   257
 75
     7
175
     7
 42
1.0
 92
        8
 66
     7
 43
1.0
 76
     1
 77
     6
 78
     2
 67
     7
 79
     5
170
     0
171
     0
290
     0
174
     0
 93
        1
 44
0.0
173
     0
291
     1
 45
0.0
  0
VISUALSTYLE
  5
3C
102
{ACAD_REACTORS
330
2A
102
}
102
{ACAD_XDICTIONARY
360
F4
102
}
330
2A
100
AcDbVisualStyle
  2
OverhangOff
 70
    21
 71
     2
 72
     2
 73
     0
 90
        0
 40
0.6
 41
30.0
 62
     5
 63
     7
421
 16777215
 74
     1
 91
        4
 64
     7
 65
   257
 75
     1
175
     1
 42
1.0
 92
        9
 66
     7
 43
1.0
 76
     1
 77
     6
 78
     2
 67
     7
 79
     5
170
     0
171
     0
290
     0
174
     0
 93
        1
 44
0.0
173
     0
291
     1
 45
0.0
  0
VISUALSTYLE
  5
33
102
{ACAD_REACTORS
330
2A
102
}
102
{ACAD_XDICTIONARY
360
E2
102
}
330
2A
100
AcDbVisualStyle
  2
Realistic
 70
     8
 71
     2
 72
     3
 73
     0
 90
        2
 40
0.6
 41
30.0
 62
     5
 63
     7
421
 16777215
 74
     0
 91
        0
 64
     7
 65
   257
 75
     1
175
     1
 42
1.0
 92
        8
 66
   257
 43
1.0
 76
     1
 77
     6
 78
     2
 67
     7
 79
     3
170
     0
171
     0
290
     0
174
     0
 93
       13
 44
0.0
173
     0
291
     0
 45
0.0
  0
VISUALSTYLE
  5
42
102
{ACAD_REACTORS
330
2A
102
}
102
{ACAD_XDICTIONARY
360
100
102
}
330
2A
100
AcDbVisualStyle
  2
Shaded
 70
    27
 71
     2
 72
     2
 73
     1
 90
        2
 40
0.6
 41
30.0
 62
     5
 63
     7
421
 16777215
 74
     0
 91
        4
 64
     7
 65
   257
 75
     1
175
     1
 42
1.0
 92
        8
 66
   257
 43
1.0
 76
     1
 77
     6
 78
     2
 67
     8
425
  7895160
 79
     3
170
     0
171
     0
290
     0
174
     0
 93
        5
 44
0.0
173
     0
291
     0
 45
0.0
  0
VISUALSTYLE
  5
41
102
{ACAD_REACTORS
330
2A
102
}
102
{ACAD_XDICTIONARY
360
FE
102
}
330
2A
100
AcDbVisualStyle
  2
Shaded with edges
 70
    26
 71
     2
 72
     2
 73
     1
 90
        2
 40
0.6
 41
30.0
 62
     5
 63
     7
421
 16777215
 74
     1
 91
       10
 64
     7
 65
   257
 75
     2
175
     1
 42
1.0
 92
        8
 66
   257
 43
1.0
 76
     1
 77
     6
 78
     2
 67
     7
 79
     3
170
     0
171
     0
290
     0
174
     0
 93
        5
 44
0.0
173
     0
291
     0
 45
0.0
  0
VISUALSTYLE
  5
3E
102
{ACAD_REACTORS
330
2A
102
}
102
{ACAD_XDICTIONARY
360
F8
102
}
330
2A
100
AcDbVisualStyle
  2
Shades of Gray
 70
    23
 71
     2
 72
     2
 73
     3
 90
        0
 40
0.6
 41
30.0
 62
     5
 63
     7
421
 16777215
 74
     2
 91
        2
 64
     7
 65
     7
 75
     1
175
     1
 42
40.0
 92
        8
 66
     7
 43
1.0
 76
     1
 77
     6
 78
     2
 67
     7
 79
     3
170
     0
171
     0
290
     0
174
     0
 93
        1
 44
0.0
173
     0
291
     0
 45
0.0
  0
VISUALSTYLE
  5
3F
102
{ACAD_REACTORS
330
2A
102
}
102
{ACAD_XDICTIONARY
360
FA
102
}
330
2A
100
AcDbVisualStyle
  2
Sketchy
 70
    24
 71
     1
 72
     2
 73
     2
 90
        0
 40
0.6
 41
30.0
 62
     5
 63
     7
421
 16777215
 74
     2
 91
        2
 64
     7
 65
     7
 75
     1
175
     1
 42
40.0
 92
       11
 66
     7
 43
1.0
 76
     1
 77
     6
 78
     2
 67
     7
 79
     6
170
     0
171
     0
290
     0
174
     0
 93
        1
 44
0.0
173
     0
291
     0
 45
0.0
  0
VISUALSTYLE
  5
37
102
{ACAD_REACTORS
330
2A
102
}
102
{ACAD_XDICTIONARY
360
EA
102
}
330
2A
100
AcDbVisualStyle
  2
Thicken
 70
    13
 71
     2
 72
     2
 73
     0
 90
        0
 40
0.6
 41
30.0
 62
     5
 63
     7
421
 16777215
 74
     1
 91
        4
 64
     7
 65
   257
 75
     1
175
     1
 42
1.0
 92
       12
 66
     7
 43
1.0
 76
     1
 77
     6
 78
     2
 67
     7
 79
     5
170
     0
171
     0
290
     0
174
     0
 93
        1
 44
0.0
173
     0
291
     1
 45
0.0
  0
VISUALSTYLE
  5
30
102
{ACAD_REACTORS
330
2A
102
}
102
{ACAD_XDICTIONARY
360
DC
102
}
330
2A
100
AcDbVisualStyle
  2
Wireframe
 70
     5
 71
     0
 72
     2
 73
     0
 90
        0
 40
0.6
 41
30.0
 62
     5
 63
     7
421
 16777215
 74
     1
 91
        4
 64
     7
 65
   257
 75
     1
175
     1
 42
1.0
 92
        0
 66
   257
 43
1.0
 76
     1
 77
     6
 78
     2
 67
     7
 79
     3
170
     0
171
     0
290
     0
174
     0
 93
        1
 44
0.0
173
     0
291
     0
 45
0.0
  0
VISUALSTYLE
  5
40
102
{ACAD_REACTORS
330
2A
102
}
102
{ACAD_XDICTIONARY
360
FC
102
}
330
2A
100
AcDbVisualStyle
  2
X-Ray
 70
    25
 71
     2
 72
     2
 73
     1
 90
        1
 40
0.5
 41
30.0
 62
     5
 63
     7
421
 16777215
 74
     1
 91
        0
 64
     7
 65
   257
 75
     1
175
     1
 42
1.0
 92
        8
 66
     7
 43
1.0
 76
     1
 77
     6
 78
     2
 67
     7
 79
     3
170
     0
171
     0
290
     0
174
     0
 93
       13
 44
0.0
173
     0
291
     0
 45
0.0
  0
DICTIONARYVAR
  5
D0
102
{ACAD_REACTORS
330
CF
102
}
330
CF
100
DictionaryVariables
280
     0
  1
1:1
  0
DICTIONARYVAR
  5
109
102
{ACAD_REACTORS
330
CF
102
}
330
CF
100
DictionaryVariables
280
     0
  1
Standard
  0
DICTIONARYVAR
  5
108
102
{ACAD_REACTORS
330
CF
102
}
330
CF
100
DictionaryVariables
280
     0
  1
Standard
  0
DICTIONARYVAR
  5
D1
102
{ACAD_REACTORS
330
CF
102
}
330
CF
100
DictionaryVariables
280
     0
  1
2
  0
DICTIONARY
  5
105
330
6C
100
AcDbDictionary
280
     1
281
     1
  3
ACAD_XREC_ROUNDTRIP
360
106
  0
DICTIONARY
  5
102
330
6A
100
AcDbDictionary
280
     1
281
     1
  3
ACAD_ROUNDTRIP_2008_TABLESTYLE_CELLSTYLEMAP
360
103
  0
DICTIONARY
  5
DA
330
2F
100
AcDbDictionary
280
     1
281
     1
  3
ACAD_XREC_ROUNDTRIP
360
DB
  0
DICTIONARY
  5
E0
330
32
100
AcDbDictionary
280
     1
281
     1
  3
ACAD_XREC_ROUNDTRIP
360
E1
  0
DICTIONARY
  5
E8
330
36
100
AcDbDictionary
280
     1
281
     1
  3
ACAD_XREC_ROUNDTRIP
360
E9
  0
DICTIONARY
  5
F0
330
3A
100
AcDbDictionary
280
     1
281
     1
  3
ACAD_XREC_ROUNDTRIP
360
F1
  0
DICTIONARY
  5
E4
330
34
100
AcDbDictionary
280
     1
281
     1
  3
ACAD_XREC_ROUNDTRIP
360
E5
  0
DICTIONARY
  5
E6
330
35
100
AcDbDictionary
280
     1
281
     1
  3
ACAD_XREC_ROUNDTRIP
360
E7
  0
DICTIONARY
  5
F6
330
3D
100
AcDbDictionary
280
     1
281
     1
  3
ACAD_XREC_ROUNDTRIP
360
F7
  0
DICTIONARY
  5
EE
330
39
100
AcDbDictionary
280
     1
281
     1
  3
ACAD_XREC_ROUNDTRIP
360
EF
  0
DICTIONARY
  5
D2
330
2B
100
AcDbDictionary
280
     1
281
     1
  3
ACAD_XREC_ROUNDTRIP
360
D3
  0
DICTIONARY
  5
D4
330
2C
100
AcDbDictionary
280
     1
281
     1
  3
ACAD_XREC_ROUNDTRIP
360
D5
  0
DICTIONARY
  5
D6
330
2D
100
AcDbDictionary
280
     1
281
     1
  3
ACAD_XREC_ROUNDTRIP
360
D7
  0
DICTIONARY
  5
D8
330
2E
100
AcDbDictionary
280
     1
281
     1
  3
ACAD_XREC_ROUNDTRIP
360
D9
  0
DICTIONARY
  5
DE
330
31
100
AcDbDictionary
280
     1
281
     1
  3
ACAD_XREC_ROUNDTRIP
360
DF
  0
DICTIONARY
  5
F2
330
3B
100
AcDbDictionary
280
     1
281
     1
  3
ACAD_XREC_ROUNDTRIP
360
F3
  0
DICTIONARY
  5
EC
330
38
100
AcDbDictionary
280
     1
281
     1
  3
ACAD_XREC_ROUNDTRIP
360
ED
  0
DICTIONARY
  5
F4
330
3C
100
AcDbDictionary
280
     1
281
     1
  3
ACAD_XREC_ROUNDTRIP
360
F5
  0
DICTIONARY
  5
E2
330
33
100
AcDbDictionary
280
     1
281
     1
  3
ACAD_XREC_ROUNDTRIP
360
E3
  0
DICTIONARY
  5
100
330
42
100
AcDbDictionary
280
     1
281
     1
  3
ACAD_XREC_ROUNDTRIP
360
101
  0
DICTIONARY
  5
FE
330
41
100
AcDbDictionary
280
     1
281
     1
  3
ACAD_XREC_ROUNDTRIP
360
FF
  0
DICTIONARY
  5
F8
330
3E
100
AcDbDictionary
280
     1
281
     1
  3
ACAD_XREC_ROUNDTRIP
360
F9
  0
DICTIONARY
  5
FA
330
3F
100
AcDbDictionary
280
     1
281
     1
  3
ACAD_XREC_ROUNDTRIP
360
FB
  0
DICTIONARY
  5
EA
330
37
100
AcDbDictionary
280
     1
281
     1
  3
ACAD_XREC_ROUNDTRIP
360
EB
  0
DICTIONARY
  5
DC
330
30
100
AcDbDictionary
280
     1
281
     1
  3
ACAD_XREC_ROUNDTRIP
360
DD
  0
DICTIONARY
  5
FC
330
40
100
AcDbDictionary
280
     1
281
     1
  3
ACAD_XREC_ROUNDTRIP
360
FD
  0
XRECORD
  5
106
102
{ACAD_REACTORS
330
105
102
}
330
105
100
AcDbXrecord
280
     1
102
ACAD_ROUNDTRIP_2010_MLEADER_STYLE
  0
CELLSTYLEMAP
  5
103
102
{ACAD_REACTORS
330
102
102
}
330
102
100
AcDbCellStyleMap
 90
        3
300
CELLSTYLE
  1
TABLEFORMAT_BEGIN
 90
        5
170
     1
 91
        0
 92
    32768
 62
   257
 93
        1
300
CONTENTFORMAT
  1
CONTENTFORMAT_BEGIN
 90
        0
 91
        0
 92
        4
 93
        0
300

 40
0.0
140
1.0
 94
        5
 62
     0
340
11
144
0.25
309
CONTENTFORMAT_END
171
     1
301
MARGIN
  1
CELLMARGIN_BEGIN
 40
0.06
 40
0.06
 40
0.06
 40
0.06
 40
0.06
 40
0.06
309
CELLMARGIN_END
 94
        6
 95
        1
302
GRIDFORMAT
  1
GRIDFORMAT_BEGIN
 90
        0
 91
        1
 62
     0
 92
       -2
340
14
 93
        0
 40
0.045
309
GRIDFORMAT_END
 95
        2
302
GRIDFORMAT
  1
GRIDFORMAT_BEGIN
 90
        0
 91
        1
 62
     0
 92
       -2
340
14
 93
        0
 40
0.045
309
GRIDFORMAT_END
 95
        4
302
GRIDFORMAT
  1
GRIDFORMAT_BEGIN
 90
        0
 91
        1
 62
     0
 92
       -2
340
14
 93
        0
 40
0.045
309
GRIDFORMAT_END
 95
        8
302
GRIDFORMAT
  1
GRIDFORMAT_BEGIN
 90
        0
 91
        1
 62
     0
 92
       -2
340
14
 93
        0
 40
0.045
309
GRIDFORMAT_END
 95
       16
302
GRIDFORMAT
  1
GRIDFORMAT_BEGIN
 90
        0
 91
        1
 62
     0
 92
       -2
340
14
 93
        0
 40
0.045
309
GRIDFORMAT_END
 95
       32
302
GRIDFORMAT
  1
GRIDFORMAT_BEGIN
 90
        0
 91
        1
 62
     0
 92
       -2
340
14
 93
        0
 40
0.045
309
GRIDFORMAT_END
309
TABLEFORMAT_END
  1
CELLSTYLE_BEGIN
 90
        1
 91
        1
300
_TITLE
309
CELLSTYLE_END
300
CELLSTYLE
  1
TABLEFORMAT_BEGIN
 90
        5
170
     1
 91
        0
 92
        0
 62
   257
 93
        1
300
CONTENTFORMAT
  1
CONTENTFORMAT_BEGIN
 90
        0
 91
        0
 92
        4
 93
        0
300

 40
0.0
140
1.0
 94
        5
 62
     0
340
11
144
0.18
309
CONTENTFORMAT_END
171
     1
301
MARGIN
  1
CELLMARGIN_BEGIN
 40
0.06
 40
0.06
 40
0.06
 40
0.06
 40
0.06
 40
0.06
309
CELLMARGIN_END
 94
        6
 95
        1
302
GRIDFORMAT
  1
GRIDFORMAT_BEGIN
 90
        0
 91
        1
 62
     0
 92
       -2
340
14
 93
        0
 40
0.045
309
GRIDFORMAT_END
 95
        2
302
GRIDFORMAT
  1
GRIDFORMAT_BEGIN
 90
        0
 91
        1
 62
     0
 92
       -2
340
14
 93
        0
 40
0.045
309
GRIDFORMAT_END
 95
        4
302
GRIDFORMAT
  1
GRIDFORMAT_BEGIN
 90
        0
 91
        1
 62
     0
 92
       -2
340
14
 93
        0
 40
0.045
309
GRIDFORMAT_END
 95
        8
302
GRIDFORMAT
  1
GRIDFORMAT_BEGIN
 90
        0
 91
        1
 62
     0
 92
       -2
340
14
 93
        0
 40
0.045
309
GRIDFORMAT_END
 95
       16
302
GRIDFORMAT
  1
GRIDFORMAT_BEGIN
 90
        0
 91
        1
 62
     0
 92
       -2
340
14
 93
        0
 40
0.045
309
GRIDFORMAT_END
 95
       32
302
GRIDFORMAT
  1
GRIDFORMAT_BEGIN
 90
        0
 91
        1
 62
     0
 92
       -2
340
14
 93
        0
 40
0.045
309
GRIDFORMAT_END
309
TABLEFORMAT_END
  1
CELLSTYLE_BEGIN
 90
        2
 91
        1
300
_HEADER
309
CELLSTYLE_END
300
CELLSTYLE
  1
TABLEFORMAT_BEGIN
 90
        5
170
     1
 91
        0
 92
        0
 62
   257
 93
        1
300
CONTENTFORMAT
  1
CONTENTFORMAT_BEGIN
 90
        0
 91
        0
 92
        4
 93
        0
300

 40
0.0
140
1.0
 94
        2
 62
     0
340
11
144
0.18
309
CONTENTFORMAT_END
171
     1
301
MARGIN
  1
CELLMARGIN_BEGIN
 40
0.06
 40
0.06
 40
0.06
 40
0.06
 40
0.06
 40
0.06
309
CELLMARGIN_END
 94
        6
 95
        1
302
GRIDFORMAT
  1
GRIDFORMAT_BEGIN
 90
        0
 91
        1
 62
     0
 92
       -2
340
14
 93
        0
 40
0.045
309
GRIDFORMAT_END
 95
        2
302
GRIDFORMAT
  1
GRIDFORMAT_BEGIN
 90
        0
 91
        1
 62
     0
 92
       -2
340
14
 93
        0
 40
0.045
309
GRIDFORMAT_END
 95
        4
302
GRIDFORMAT
  1
GRIDFORMAT_BEGIN
 90
        0
 91
        1
 62
     0
 92
       -2
340
14
 93
        0
 40
0.045
309
GRIDFORMAT_END
 95
        8
302
GRIDFORMAT
  1
GRIDFORMAT_BEGIN
 90
        0
 91
        1
 62
     0
 92
       -2
340
14
 93
        0
 40
0.045
309
GRIDFORMAT_END
 95
       16
302
GRIDFORMAT
  1
GRIDFORMAT_BEGIN
 90
        0
 91
        1
 62
     0
 92
       -2
340
14
 93
        0
 40
0.045
309
GRIDFORMAT_END
 95
       32
302
GRIDFORMAT
  1
GRIDFORMAT_BEGIN
 90
        0
 91
        1
 62
     0
 92
       -2
340
14
 93
        0
 40
0.045
309
GRIDFORMAT_END
309
TABLEFORMAT_END
  1
CELLSTYLE_BEGIN
 90
        3
 91
        2
300
_DATA
309
CELLSTYLE_END
  0
XRECORD
  5
DB
102
{ACAD_REACTORS
330
DA
102
}
330
DA
100
AcDbXrecord
280
     1
102
RTVSPropertyOp0
 70
     1
102
RTVSPropertyOp1
 70
     1
102
RTVSPropertyOp2
 70
     1
102
RTVSPropertyOp3
 70
     1
102
RTVSPropertyOp4
 70
     1
102
RTVSPropertyOp5
 70
     1
102
RTVSPropertyOp6
 70
     1
102
RTVSPropertyOp7
 70
     1
102
RTVSPropertyOp8
 70
     1
102
RTVSPropertyOp9
 70
     1
102
RTVSPropertyOp10
 70
     1
102
RTVSPropertyOp11
 70
     1
102
RTVSPropertyOp12
 70
     1
102
RTVSPropertyOp13
 70
     1
102
RTVSPropertyOp14
 70
     1
102
RTVSPropertyOp15
 70
     1
102
RTVSPropertyOp16
 70
     1
102
RTVSPropertyOp17
 70
     1
102
RTVSPropertyOp18
 70
     1
102
RTVSPropertyOp19
 70
     1
102
RTVSPropertyOp20
 70
     1
102
RTVSPropertyOp21
 70
     1
102
RTVSPropertyOp22
 70
     1
102
RTVSPropertyOp23
 70
     1
102
RTVSPropertyOp24
 70
     1
102
RTVSPropertyOp25
 70
     1
102
RTVSPropertyOp26
 70
     1
102
RTVSPropertyOp27
 70
     1
102
RTVSPropertyOp28
 70
     1
102
RTVSPropertyOp29
 70
     1
102
RTVSPropertyOp30
 70
     1
102
RTVSPropertyOp31
 70
     1
102
RTVSPropertyOp32
 70
     1
102
RTVSPropertyOp33
 70
     1
102
RTVSPropertyOp34
 70
     1
102
RTVSPropertyOp35
 70
     1
102
RTVSPropertyOp36
 70
     1
102
RTVSPropertyOp37
 70
     1
102
RTVSPropertyOp38
 70
     1
102
RTVSPropertyOp39
 70
     1
102
RTVSPropertyOp40
 70
     1
102
RTVSPropertyOp41
 70
     1
102
RTVSPropertyOp42
 70
     1
102
RTVSPropertyOp43
 70
     1
102
RTVSPropertyOp44
 70
     1
102
RTVSPropertyOp45
 70
     1
102
RTVSPropertyOp46
 70
     1
102
RTVSPropertyOp47
 70
     1
102
RTVSPropertyOp48
 70
     1
102
RTVSPropertyOp49
 70
     1
102
RTVSPropertyOp50
 70
     1
102
RTVSPropertyOp51
 70
     0
102
RTVSPropertyOp52
 70
     0
102
RTVSPropertyOp53
 70
     1
102
RTVSPropertyOp54
 70
     1
102
RTVSPropertyOp55
 70
     1
102
RTVSPropertyOp56
 70
     1
102
RTVSPropertyOp57
 70
     1
102
RTVSPost2010Prop28
280
     1
102
RTVSPost2010PropOp28
 70
     1
102
RTVSPost2010Prop29
280
     1
102
RTVSPost2010PropOp29
 70
     1
102
RTVSPost2010Prop30
280
     0
102
RTVSPost2010PropOp30
 70
     1
102
RTVSPost2010Prop31
280
     0
102
RTVSPost2010PropOp31
 70
     1
102
RTVSPost2010Prop32
280
     0
102
RTVSPost2010PropOp32
 70
     1
102
RTVSPost2010Prop33
280
     0
102
RTVSPost2010PropOp33
 70
     1
102
RTVSPost2010Prop34
280
     0
102
RTVSPost2010PropOp34
 70
     1
102
RTVSPost2010Prop35
280
     0
102
RTVSPost2010PropOp35
 70
     1
102
RTVSPost2010Prop36
280
     0
102
RTVSPost2010PropOp36
 70
     1
102
RTVSPost2010Prop37
 90
       50
102
RTVSPost2010PropOp37
 70
     1
102
RTVSPost2010Prop38
140
0.0
102
RTVSPost2010PropOp38
 70
     1
102
RTVSPost2010Prop39
140
1.0
102
RTVSPost2010PropOp39
 70
     1
102
RTVSPost2010Prop40
 90
        0
102
RTVSPost2010PropOp40
 70
     1
102
RTVSPost2010Prop41ColorIndex
 90
       18
102
RTVSPost2010Prop41ColorRGB
 90
        0
102
RTVSPost2010PropOp41
 70
     1
102
RTVSPost2010Prop42
 90
       50
102
RTVSPost2010PropOp42
 70
     1
102
RTVSPost2010Prop43
 90
        3
102
RTVSPost2010PropOp43
 70
     1
102
RTVSPost2010Prop44ColorIndex
 90
        5
102
RTVSPost2010Prop44ColorRGB
 90
      255
102
RTVSPost2010PropOp44
 70
     1
102
RTVSPost2010Prop45
280
     0
102
RTVSPost2010PropOp45
 70
     1
102
RTVSPost2010Prop46
 90
       50
102
RTVSPost2010PropOp46
 70
     1
102
RTVSPost2010Prop47
 90
       50
102
RTVSPost2010PropOp47
 70
     1
102
RTVSPost2010Prop48
 90
       50
102
RTVSPost2010PropOp48
 70
     1
102
RTVSPost2010Prop49
280
     0
102
RTVSPost2010PropOp49
 70
     1
102
RTVSPost2010Prop50
 90
       50
102
RTVSPost2010PropOp50
 70
     1
102
RTVSPost2010Prop51ColorIndex
 90
      256
102
RTVSPost2010Prop51ColorRGB
 90
-16777216
102
RTVSPost2010PropOp51
 70
     0
102
RTVSPost2010Prop52
140
1.0
102
RTVSPost2010PropOp52
 70
     0
102
RTVSPost2010Prop53
 90
        2
102
RTVSPost2010PropOp53
 70
     1
102
RTVSPost2010Prop54
  1
strokes_ogs.tif
102
RTVSPost2010PropOp54
 70
     1
102
RTVSPost2010Prop55
280
     0
102
RTVSPost2010PropOp55
 70
     1
102
RTVSPost2010Prop56
140
1.0
102
RTVSPost2010PropOp56
 70
     1
102
RTVSPost2010Prop57
140
1.0
102
RTVSPost2010PropOp57
 70
     1
  0
XRECORD
  5
E1
102
{ACAD_REACTORS
330
E0
102
}
330
E0
100
AcDbXrecord
280
     1
102
RTVSPropertyOp0
 70
     1
102
RTVSPropertyOp1
 70
     1
102
RTVSPropertyOp2
 70
     1
102
RTVSPropertyOp3
 70
     1
102
RTVSPropertyOp4
 70
     1
102
RTVSPropertyOp5
 70
     1
102
RTVSPropertyOp6
 70
     1
102
RTVSPropertyOp7
 70
     1
102
RTVSPropertyOp8
 70
     1
102
RTVSPropertyOp9
 70
     1
102
RTVSPropertyOp10
 70
     1
102
RTVSPropertyOp11
 70
     1
102
RTVSPropertyOp12
 70
     1
102
RTVSPropertyOp13
 70
     1
102
RTVSPropertyOp14
 70
     1
102
RTVSPropertyOp15
 70
     1
102
RTVSPropertyOp16
 70
     1
102
RTVSPropertyOp17
 70
     1
102
RTVSPropertyOp18
 70
     1
102
RTVSPropertyOp19
 70
     1
102
RTVSPropertyOp20
 70
     1
102
RTVSPropertyOp21
 70
     1
102
RTVSPropertyOp22
 70
     1
102
RTVSPropertyOp23
 70
     1
102
RTVSPropertyOp24
 70
     1
102
RTVSPropertyOp25
 70
     1
102
RTVSPropertyOp26
 70
     1
102
RTVSPropertyOp27
 70
     1
102
RTVSPropertyOp28
 70
     1
102
RTVSPropertyOp29
 70
     1
102
RTVSPropertyOp30
 70
     1
102
RTVSPropertyOp31
 70
     1
102
RTVSPropertyOp32
 70
     1
102
RTVSPropertyOp33
 70
     1
102
RTVSPropertyOp34
 70
     1
102
RTVSPropertyOp35
 70
     1
102
RTVSPropertyOp36
 70
     1
102
RTVSPropertyOp37
 70
     1
102
RTVSPropertyOp38
 70
     1
102
RTVSPropertyOp39
 70
     1
102
RTVSPropertyOp40
 70
     1
102
RTVSPropertyOp41
 70
     1
102
RTVSPropertyOp42
 70
     1
102
RTVSPropertyOp43
 70
     1
102
RTVSPropertyOp44
 70
     1
102
RTVSPropertyOp45
 70
     1
102
RTVSPropertyOp46
 70
     1
102
RTVSPropertyOp47
 70
     1
102
RTVSPropertyOp48
 70
     1
102
RTVSPropertyOp49
 70
     1
102
RTVSPropertyOp50
 70
     1
102
RTVSPropertyOp51
 70
     0
102
RTVSPropertyOp52
 70
     0
102
RTVSPropertyOp53
 70
     1
102
RTVSPropertyOp54
 70
     1
102
RTVSPropertyOp55
 70
     1
102
RTVSPropertyOp56
 70
     1
102
RTVSPropertyOp57
 70
     1
102
RTVSPost2010Prop28
280
     0
102
RTVSPost2010PropOp28
 70
     1
102
RTVSPost2010Prop29
280
     1
102
RTVSPost2010PropOp29
 70
     1
102
RTVSPost2010Prop30
280
     1
102
RTVSPost2010PropOp30
 70
     1
102
RTVSPost2010Prop31
280
     0
102
RTVSPost2010PropOp31
 70
     1
102
RTVSPost2010Prop32
280
     0
102
RTVSPost2010PropOp32
 70
     1
102
RTVSPost2010Prop33
280
     0
102
RTVSPost2010PropOp33
 70
     1
102
RTVSPost2010Prop34
280
     0
102
RTVSPost2010PropOp34
 70
     1
102
RTVSPost2010Prop35
280
     0
102
RTVSPost2010PropOp35
 70
     1
102
RTVSPost2010Prop36
280
     0
102
RTVSPost2010PropOp36
 70
     1
102
RTVSPost2010Prop37
 90
       50
102
RTVSPost2010PropOp37
 70
     1
102
RTVSPost2010Prop38
140
0.0
102
RTVSPost2010PropOp38
 70
     1
102
RTVSPost2010Prop39
140
1.0
102
RTVSPost2010PropOp39
 70
     1
102
RTVSPost2010Prop40
 90
        0
102
RTVSPost2010PropOp40
 70
     1
102
RTVSPost2010Prop41ColorIndex
 90
       18
102
RTVSPost2010Prop41ColorRGB
 90
        0
102
RTVSPost2010PropOp41
 70
     1
102
RTVSPost2010Prop42
 90
       50
102
RTVSPost2010PropOp42
 70
     1
102
RTVSPost2010Prop43
 90
        3
102
RTVSPost2010PropOp43
 70
     1
102
RTVSPost2010Prop44ColorIndex
 90
        5
102
RTVSPost2010Prop44ColorRGB
 90
      255
102
RTVSPost2010PropOp44
 70
     1
102
RTVSPost2010Prop45
280
     0
102
RTVSPost2010PropOp45
 70
     1
102
RTVSPost2010Prop46
 90
       50
102
RTVSPost2010PropOp46
 70
     1
102
RTVSPost2010Prop47
 90
       50
102
RTVSPost2010PropOp47
 70
     1
102
RTVSPost2010Prop48
 90
       50
102
RTVSPost2010PropOp48
 70
     1
102
RTVSPost2010Prop49
280
     0
102
RTVSPost2010PropOp49
 70
     1
102
RTVSPost2010Prop50
 90
       50
102
RTVSPost2010PropOp50
 70
     1
102
RTVSPost2010Prop51ColorIndex
 90
      256
102
RTVSPost2010Prop51ColorRGB
 90
-16777216
102
RTVSPost2010PropOp51
 70
     0
102
RTVSPost2010Prop52
140
1.0
102
RTVSPost2010PropOp52
 70
     0
102
RTVSPost2010Prop53
 90
        2
102
RTVSPost2010PropOp53
 70
     1
102
RTVSPost2010Prop54
  1
strokes_ogs.tif
102
RTVSPost2010PropOp54
 70
     1
102
RTVSPost2010Prop55
280
     0
102
RTVSPost2010PropOp55
 70
     1
102
RTVSPost2010Prop56
140
1.0
102
RTVSPost2010PropOp56
 70
     1
102
RTVSPost2010Prop57
140
1.0
102
RTVSPost2010PropOp57
 70
     1
  0
XRECORD
  5
E9
102
{ACAD_REACTORS
330
E8
102
}
330
E8
100
AcDbXrecord
280
     1
102
RTVSPropertyOp0
 70
     1
102
RTVSPropertyOp1
 70
     1
102
RTVSPropertyOp2
 70
     1
102
RTVSPropertyOp3
 70
     1
102
RTVSPropertyOp4
 70
     1
102
RTVSPropertyOp5
 70
     1
102
RTVSPropertyOp6
 70
     1
102
RTVSPropertyOp7
 70
     1
102
RTVSPropertyOp8
 70
     1
102
RTVSPropertyOp9
 70
     1
102
RTVSPropertyOp10
 70
     1
102
RTVSPropertyOp11
 70
     1
102
RTVSPropertyOp12
 70
     1
102
RTVSPropertyOp13
 70
     1
102
RTVSPropertyOp14
 70
     1
102
RTVSPropertyOp15
 70
     1
102
RTVSPropertyOp16
 70
     1
102
RTVSPropertyOp17
 70
     1
102
RTVSPropertyOp18
 70
     1
102
RTVSPropertyOp19
 70
     1
102
RTVSPropertyOp20
 70
     1
102
RTVSPropertyOp21
 70
     1
102
RTVSPropertyOp22
 70
     1
102
RTVSPropertyOp23
 70
     1
102
RTVSPropertyOp24
 70
     1
102
RTVSPropertyOp25
 70
     1
102
RTVSPropertyOp26
 70
     1
102
RTVSPropertyOp27
 70
     1
102
RTVSPropertyOp28
 70
     1
102
RTVSPropertyOp29
 70
     1
102
RTVSPropertyOp30
 70
     1
102
RTVSPropertyOp31
 70
     1
102
RTVSPropertyOp32
 70
     1
102
RTVSPropertyOp33
 70
     1
102
RTVSPropertyOp34
 70
     1
102
RTVSPropertyOp35
 70
     1
102
RTVSPropertyOp36
 70
     1
102
RTVSPropertyOp37
 70
     1
102
RTVSPropertyOp38
 70
     1
102
RTVSPropertyOp39
 70
     1
102
RTVSPropertyOp40
 70
     1
102
RTVSPropertyOp41
 70
     1
102
RTVSPropertyOp42
 70
     1
102
RTVSPropertyOp43
 70
     1
102
RTVSPropertyOp44
 70
     1
102
RTVSPropertyOp45
 70
     1
102
RTVSPropertyOp46
 70
     1
102
RTVSPropertyOp47
 70
     1
102
RTVSPropertyOp48
 70
     1
102
RTVSPropertyOp49
 70
     1
102
RTVSPropertyOp50
 70
     1
102
RTVSPropertyOp51
 70
     0
102
RTVSPropertyOp52
 70
     0
102
RTVSPropertyOp53
 70
     1
102
RTVSPropertyOp54
 70
     1
102
RTVSPropertyOp55
 70
     1
102
RTVSPropertyOp56
 70
     1
102
RTVSPropertyOp57
 70
     1
102
RTVSPost2010Prop28
280
     0
102
RTVSPost2010PropOp28
 70
     1
102
RTVSPost2010Prop29
280
     1
102
RTVSPost2010PropOp29
 70
     1
102
RTVSPost2010Prop30
280
     1
102
RTVSPost2010PropOp30
 70
     1
102
RTVSPost2010Prop31
280
     0
102
RTVSPost2010PropOp31
 70
     1
102
RTVSPost2010Prop32
280
     0
102
RTVSPost2010PropOp32
 70
     1
102
RTVSPost2010Prop33
280
     0
102
RTVSPost2010PropOp33
 70
     1
102
RTVSPost2010Prop34
280
     0
102
RTVSPost2010PropOp34
 70
     1
102
RTVSPost2010Prop35
280
     0
102
RTVSPost2010PropOp35
 70
     1
102
RTVSPost2010Prop36
280
     0
102
RTVSPost2010PropOp36
 70
     1
102
RTVSPost2010Prop37
 90
       50
102
RTVSPost2010PropOp37
 70
     1
102
RTVSPost2010Prop38
140
0.0
102
RTVSPost2010PropOp38
 70
     1
102
RTVSPost2010Prop39
140
1.0
102
RTVSPost2010PropOp39
 70
     1
102
RTVSPost2010Prop40
 90
        0
102
RTVSPost2010PropOp40
 70
     1
102
RTVSPost2010Prop41ColorIndex
 90
       18
102
RTVSPost2010Prop41ColorRGB
 90
        0
102
RTVSPost2010PropOp41
 70
     1
102
RTVSPost2010Prop42
 90
       50
102
RTVSPost2010PropOp42
 70
     1
102
RTVSPost2010Prop43
 90
        3
102
RTVSPost2010PropOp43
 70
     1
102
RTVSPost2010Prop44ColorIndex
 90
        5
102
RTVSPost2010Prop44ColorRGB
 90
      255
102
RTVSPost2010PropOp44
 70
     1
102
RTVSPost2010Prop45
280
     0
102
RTVSPost2010PropOp45
 70
     1
102
RTVSPost2010Prop46
 90
       50
102
RTVSPost2010PropOp46
 70
     1
102
RTVSPost2010Prop47
 90
       50
102
RTVSPost2010PropOp47
 70
     1
102
RTVSPost2010Prop48
 90
       50
102
RTVSPost2010PropOp48
 70
     1
102
RTVSPost2010Prop49
280
     0
102
RTVSPost2010PropOp49
 70
     1
102
RTVSPost2010Prop50
 90
       50
102
RTVSPost2010PropOp50
 70
     1
102
RTVSPost2010Prop51ColorIndex
 90
      256
102
RTVSPost2010Prop51ColorRGB
 90
-16777216
102
RTVSPost2010PropOp51
 70
     0
102
RTVSPost2010Prop52
140
1.0
102
RTVSPost2010PropOp52
 70
     0
102
RTVSPost2010Prop53
 90
        2
102
RTVSPost2010PropOp53
 70
     1
102
RTVSPost2010Prop54
  1
strokes_ogs.tif
102
RTVSPost2010PropOp54
 70
     1
102
RTVSPost2010Prop55
280
     0
102
RTVSPost2010PropOp55
 70
     1
102
RTVSPost2010Prop56
140
1.0
102
RTVSPost2010PropOp56
 70
     1
102
RTVSPost2010Prop57
140
1.0
102
RTVSPost2010PropOp57
 70
     1
  0
XRECORD
  5
F1
102
{ACAD_REACTORS
330
F0
102
}
330
F0
100
AcDbXrecord
280
     1
102
RTVSPropertyOp0
 70
     1
102
RTVSPropertyOp1
 70
     1
102
RTVSPropertyOp2
 70
     1
102
RTVSPropertyOp3
 70
     1
102
RTVSPropertyOp4
 70
     1
102
RTVSPropertyOp5
 70
     1
102
RTVSPropertyOp6
 70
     1
102
RTVSPropertyOp7
 70
     1
102
RTVSPropertyOp8
 70
     1
102
RTVSPropertyOp9
 70
     1
102
RTVSPropertyOp10
 70
     1
102
RTVSPropertyOp11
 70
     1
102
RTVSPropertyOp12
 70
     1
102
RTVSPropertyOp13
 70
     1
102
RTVSPropertyOp14
 70
     1
102
RTVSPropertyOp15
 70
     1
102
RTVSPropertyOp16
 70
     1
102
RTVSPropertyOp17
 70
     1
102
RTVSPropertyOp18
 70
     1
102
RTVSPropertyOp19
 70
     1
102
RTVSPropertyOp20
 70
     1
102
RTVSPropertyOp21
 70
     1
102
RTVSPropertyOp22
 70
     1
102
RTVSPropertyOp23
 70
     1
102
RTVSPropertyOp24
 70
     1
102
RTVSPropertyOp25
 70
     1
102
RTVSPropertyOp26
 70
     1
102
RTVSPropertyOp27
 70
     1
102
RTVSPropertyOp28
 70
     1
102
RTVSPropertyOp29
 70
     1
102
RTVSPropertyOp30
 70
     1
102
RTVSPropertyOp31
 70
     1
102
RTVSPropertyOp32
 70
     1
102
RTVSPropertyOp33
 70
     1
102
RTVSPropertyOp34
 70
     1
102
RTVSPropertyOp35
 70
     1
102
RTVSPropertyOp36
 70
     1
102
RTVSPropertyOp37
 70
     1
102
RTVSPropertyOp38
 70
     1
102
RTVSPropertyOp39
 70
     1
102
RTVSPropertyOp40
 70
     1
102
RTVSPropertyOp41
 70
     1
102
RTVSPropertyOp42
 70
     1
102
RTVSPropertyOp43
 70
     1
102
RTVSPropertyOp44
 70
     1
102
RTVSPropertyOp45
 70
     1
102
RTVSPropertyOp46
 70
     1
102
RTVSPropertyOp47
 70
     1
102
RTVSPropertyOp48
 70
     1
102
RTVSPropertyOp49
 70
     1
102
RTVSPropertyOp50
 70
     1
102
RTVSPropertyOp51
 70
     0
102
RTVSPropertyOp52
 70
     0
102
RTVSPropertyOp53
 70
     1
102
RTVSPropertyOp54
 70
     1
102
RTVSPropertyOp55
 70
     1
102
RTVSPropertyOp56
 70
     1
102
RTVSPropertyOp57
 70
     1
102
RTVSPost2010Prop28
280
     0
102
RTVSPost2010PropOp28
 70
     1
102
RTVSPost2010Prop29
280
     1
102
RTVSPost2010PropOp29
 70
     1
102
RTVSPost2010Prop30
280
     1
102
RTVSPost2010PropOp30
 70
     1
102
RTVSPost2010Prop31
280
     0
102
RTVSPost2010PropOp31
 70
     1
102
RTVSPost2010Prop32
280
     0
102
RTVSPost2010PropOp32
 70
     1
102
RTVSPost2010Prop33
280
     0
102
RTVSPost2010PropOp33
 70
     1
102
RTVSPost2010Prop34
280
     0
102
RTVSPost2010PropOp34
 70
     1
102
RTVSPost2010Prop35
280
     0
102
RTVSPost2010PropOp35
 70
     1
102
RTVSPost2010Prop36
280
     0
102
RTVSPost2010PropOp36
 70
     1
102
RTVSPost2010Prop37
 90
       50
102
RTVSPost2010PropOp37
 70
     1
102
RTVSPost2010Prop38
140
0.0
102
RTVSPost2010PropOp38
 70
     1
102
RTVSPost2010Prop39
140
1.0
102
RTVSPost2010PropOp39
 70
     1
102
RTVSPost2010Prop40
 90
        0
102
RTVSPost2010PropOp40
 70
     1
102
RTVSPost2010Prop41ColorIndex
 90
       18
102
RTVSPost2010Prop41ColorRGB
 90
        0
102
RTVSPost2010PropOp41
 70
     1
102
RTVSPost2010Prop42
 90
       50
102
RTVSPost2010PropOp42
 70
     1
102
RTVSPost2010Prop43
 90
        3
102
RTVSPost2010PropOp43
 70
     1
102
RTVSPost2010Prop44ColorIndex
 90
        5
102
RTVSPost2010Prop44ColorRGB
 90
      255
102
RTVSPost2010PropOp44
 70
     1
102
RTVSPost2010Prop45
280
     0
102
RTVSPost2010PropOp45
 70
     1
102
RTVSPost2010Prop46
 90
       50
102
RTVSPost2010PropOp46
 70
     1
102
RTVSPost2010Prop47
 90
       50
102
RTVSPost2010PropOp47
 70
     1
102
RTVSPost2010Prop48
 90
       50
102
RTVSPost2010PropOp48
 70
     1
102
RTVSPost2010Prop49
280
     0
102
RTVSPost2010PropOp49
 70
     1
102
RTVSPost2010Prop50
 90
       50
102
RTVSPost2010PropOp50
 70
     1
102
RTVSPost2010Prop51ColorIndex
 90
      256
102
RTVSPost2010Prop51ColorRGB
 90
-16777216
102
RTVSPost2010PropOp51
 70
     0
102
RTVSPost2010Prop52
140
1.0
102
RTVSPost2010PropOp52
 70
     0
102
RTVSPost2010Prop53
 90
        2
102
RTVSPost2010PropOp53
 70
     1
102
RTVSPost2010Prop54
  1
strokes_ogs.tif
102
RTVSPost2010PropOp54
 70
     1
102
RTVSPost2010Prop55
280
     0
102
RTVSPost2010PropOp55
 70
     1
102
RTVSPost2010Prop56
140
1.0
102
RTVSPost2010PropOp56
 70
     1
102
RTVSPost2010Prop57
140
1.0
102
RTVSPost2010PropOp57
 70
     1
  0
XRECORD
  5
E5
102
{ACAD_REACTORS
330
E4
102
}
330
E4
100
AcDbXrecord
280
     1
102
RTVSPropertyOp0
 70
     1
102
RTVSPropertyOp1
 70
     1
102
RTVSPropertyOp2
 70
     1
102
RTVSPropertyOp3
 70
     1
102
RTVSPropertyOp4
 70
     1
102
RTVSPropertyOp5
 70
     1
102
RTVSPropertyOp6
 70
     1
102
RTVSPropertyOp7
 70
     1
102
RTVSPropertyOp8
 70
     1
102
RTVSPropertyOp9
 70
     1
102
RTVSPropertyOp10
 70
     1
102
RTVSPropertyOp11
 70
     1
102
RTVSPropertyOp12
 70
     1
102
RTVSPropertyOp13
 70
     1
102
RTVSPropertyOp14
 70
     1
102
RTVSPropertyOp15
 70
     1
102
RTVSPropertyOp16
 70
     1
102
RTVSPropertyOp17
 70
     1
102
RTVSPropertyOp18
 70
     1
102
RTVSPropertyOp19
 70
     1
102
RTVSPropertyOp20
 70
     1
102
RTVSPropertyOp21
 70
     1
102
RTVSPropertyOp22
 70
     1
102
RTVSPropertyOp23
 70
     1
102
RTVSPropertyOp24
 70
     1
102
RTVSPropertyOp25
 70
     1
102
RTVSPropertyOp26
 70
     1
102
RTVSPropertyOp27
 70
     1
102
RTVSPropertyOp28
 70
     1
102
RTVSPropertyOp29
 70
     1
102
RTVSPropertyOp30
 70
     1
102
RTVSPropertyOp31
 70
     1
102
RTVSPropertyOp32
 70
     1
102
RTVSPropertyOp33
 70
     1
102
RTVSPropertyOp34
 70
     1
102
RTVSPropertyOp35
 70
     1
102
RTVSPropertyOp36
 70
     1
102
RTVSPropertyOp37
 70
     1
102
RTVSPropertyOp38
 70
     1
102
RTVSPropertyOp39
 70
     1
102
RTVSPropertyOp40
 70
     1
102
RTVSPropertyOp41
 70
     1
102
RTVSPropertyOp42
 70
     1
102
RTVSPropertyOp43
 70
     1
102
RTVSPropertyOp44
 70
     1
102
RTVSPropertyOp45
 70
     1
102
RTVSPropertyOp46
 70
     1
102
RTVSPropertyOp47
 70
     1
102
RTVSPropertyOp48
 70
     1
102
RTVSPropertyOp49
 70
     1
102
RTVSPropertyOp50
 70
     1
102
RTVSPropertyOp51
 70
     0
102
RTVSPropertyOp52
 70
     0
102
RTVSPropertyOp53
 70
     1
102
RTVSPropertyOp54
 70
     1
102
RTVSPropertyOp55
 70
     1
102
RTVSPropertyOp56
 70
     1
102
RTVSPropertyOp57
 70
     1
102
RTVSPost2010Prop28
280
     0
102
RTVSPost2010PropOp28
 70
     1
102
RTVSPost2010Prop29
280
     1
102
RTVSPost2010PropOp29
 70
     1
102
RTVSPost2010Prop30
280
     1
102
RTVSPost2010PropOp30
 70
     1
102
RTVSPost2010Prop31
280
     0
102
RTVSPost2010PropOp31
 70
     1
102
RTVSPost2010Prop32
280
     0
102
RTVSPost2010PropOp32
 70
     1
102
RTVSPost2010Prop33
280
     0
102
RTVSPost2010PropOp33
 70
     1
102
RTVSPost2010Prop34
280
     0
102
RTVSPost2010PropOp34
 70
     1
102
RTVSPost2010Prop35
280
     0
102
RTVSPost2010PropOp35
 70
     1
102
RTVSPost2010Prop36
280
     0
102
RTVSPost2010PropOp36
 70
     1
102
RTVSPost2010Prop37
 90
       50
102
RTVSPost2010PropOp37
 70
     1
102
RTVSPost2010Prop38
140
0.0
102
RTVSPost2010PropOp38
 70
     1
102
RTVSPost2010Prop39
140
1.0
102
RTVSPost2010PropOp39
 70
     1
102
RTVSPost2010Prop40
 90
        0
102
RTVSPost2010PropOp40
 70
     1
102
RTVSPost2010Prop41ColorIndex
 90
       18
102
RTVSPost2010Prop41ColorRGB
 90
        0
102
RTVSPost2010PropOp41
 70
     1
102
RTVSPost2010Prop42
 90
       50
102
RTVSPost2010PropOp42
 70
     1
102
RTVSPost2010Prop43
 90
        3
102
RTVSPost2010PropOp43
 70
     1
102
RTVSPost2010Prop44ColorIndex
 90
        5
102
RTVSPost2010Prop44ColorRGB
 90
      255
102
RTVSPost2010PropOp44
 70
     1
102
RTVSPost2010Prop45
280
     0
102
RTVSPost2010PropOp45
 70
     1
102
RTVSPost2010Prop46
 90
       50
102
RTVSPost2010PropOp46
 70
     1
102
RTVSPost2010Prop47
 90
       50
102
RTVSPost2010PropOp47
 70
     1
102
RTVSPost2010Prop48
 90
       50
102
RTVSPost2010PropOp48
 70
     1
102
RTVSPost2010Prop49
280
     0
102
RTVSPost2010PropOp49
 70
     1
102
RTVSPost2010Prop50
 90
       50
102
RTVSPost2010PropOp50
 70
     1
102
RTVSPost2010Prop51ColorIndex
 90
      256
102
RTVSPost2010Prop51ColorRGB
 90
-16777216
102
RTVSPost2010PropOp51
 70
     0
102
RTVSPost2010Prop52
140
1.0
102
RTVSPost2010PropOp52
 70
     0
102
RTVSPost2010Prop53
 90
        2
102
RTVSPost2010PropOp53
 70
     1
102
RTVSPost2010Prop54
  1
strokes_ogs.tif
102
RTVSPost2010PropOp54
 70
     1
102
RTVSPost2010Prop55
280
     0
102
RTVSPost2010PropOp55
 70
     1
102
RTVSPost2010Prop56
140
1.0
102
RTVSPost2010PropOp56
 70
     1
102
RTVSPost2010Prop57
140
1.0
102
RTVSPost2010PropOp57
 70
     1
  0
XRECORD
  5
E7
102
{ACAD_REACTORS
330
E6
102
}
330
E6
100
AcDbXrecord
280
     1
102
RTVSPropertyOp0
 70
     1
102
RTVSPropertyOp1
 70
     1
102
RTVSPropertyOp2
 70
     1
102
RTVSPropertyOp3
 70
     1
102
RTVSPropertyOp4
 70
     1
102
RTVSPropertyOp5
 70
     1
102
RTVSPropertyOp6
 70
     1
102
RTVSPropertyOp7
 70
     1
102
RTVSPropertyOp8
 70
     1
102
RTVSPropertyOp9
 70
     1
102
RTVSPropertyOp10
 70
     1
102
RTVSPropertyOp11
 70
     1
102
RTVSPropertyOp12
 70
     1
102
RTVSPropertyOp13
 70
     1
102
RTVSPropertyOp14
 70
     1
102
RTVSPropertyOp15
 70
     1
102
RTVSPropertyOp16
 70
     1
102
RTVSPropertyOp17
 70
     1
102
RTVSPropertyOp18
 70
     1
102
RTVSPropertyOp19
 70
     1
102
RTVSPropertyOp20
 70
     1
102
RTVSPropertyOp21
 70
     1
102
RTVSPropertyOp22
 70
     1
102
RTVSPropertyOp23
 70
     1
102
RTVSPropertyOp24
 70
     1
102
RTVSPropertyOp25
 70
     1
102
RTVSPropertyOp26
 70
     1
102
RTVSPropertyOp27
 70
     1
102
RTVSPropertyOp28
 70
     1
102
RTVSPropertyOp29
 70
     1
102
RTVSPropertyOp30
 70
     1
102
RTVSPropertyOp31
 70
     1
102
RTVSPropertyOp32
 70
     1
102
RTVSPropertyOp33
 70
     1
102
RTVSPropertyOp34
 70
     1
102
RTVSPropertyOp35
 70
     1
102
RTVSPropertyOp36
 70
     1
102
RTVSPropertyOp37
 70
     1
102
RTVSPropertyOp38
 70
     1
102
RTVSPropertyOp39
 70
     1
102
RTVSPropertyOp40
 70
     1
102
RTVSPropertyOp41
 70
     1
102
RTVSPropertyOp42
 70
     1
102
RTVSPropertyOp43
 70
     1
102
RTVSPropertyOp44
 70
     1
102
RTVSPropertyOp45
 70
     1
102
RTVSPropertyOp46
 70
     1
102
RTVSPropertyOp47
 70
     1
102
RTVSPropertyOp48
 70
     1
102
RTVSPropertyOp49
 70
     1
102
RTVSPropertyOp50
 70
     1
102
RTVSPropertyOp51
 70
     0
102
RTVSPropertyOp52
 70
     0
102
RTVSPropertyOp53
 70
     1
102
RTVSPropertyOp54
 70
     1
102
RTVSPropertyOp55
 70
     1
102
RTVSPropertyOp56
 70
     1
102
RTVSPropertyOp57
 70
     1
102
RTVSPost2010Prop28
280
     0
102
RTVSPost2010PropOp28
 70
     1
102
RTVSPost2010Prop29
280
     1
102
RTVSPost2010PropOp29
 70
     1
102
RTVSPost2010Prop30
280
     1
102
RTVSPost2010PropOp30
 70
     1
102
RTVSPost2010Prop31
280
     0
102
RTVSPost2010PropOp31
 70
     1
102
RTVSPost2010Prop32
280
     0
102
RTVSPost2010PropOp32
 70
     1
102
RTVSPost2010Prop33
280
     0
102
RTVSPost2010PropOp33
 70
     1
102
RTVSPost2010Prop34
280
     0
102
RTVSPost2010PropOp34
 70
     1
102
RTVSPost2010Prop35
280
     0
102
RTVSPost2010PropOp35
 70
     1
102
RTVSPost2010Prop36
280
     0
102
RTVSPost2010PropOp36
 70
     1
102
RTVSPost2010Prop37
 90
       50
102
RTVSPost2010PropOp37
 70
     1
102
RTVSPost2010Prop38
140
0.0
102
RTVSPost2010PropOp38
 70
     1
102
RTVSPost2010Prop39
140
1.0
102
RTVSPost2010PropOp39
 70
     1
102
RTVSPost2010Prop40
 90
        0
102
RTVSPost2010PropOp40
 70
     1
102
RTVSPost2010Prop41ColorIndex
 90
       18
102
RTVSPost2010Prop41ColorRGB
 90
        0
102
RTVSPost2010PropOp41
 70
     1
102
RTVSPost2010Prop42
 90
       50
102
RTVSPost2010PropOp42
 70
     1
102
RTVSPost2010Prop43
 90
        3
102
RTVSPost2010PropOp43
 70
     1
102
RTVSPost2010Prop44ColorIndex
 90
        5
102
RTVSPost2010Prop44ColorRGB
 90
      255
102
RTVSPost2010PropOp44
 70
     1
102
RTVSPost2010Prop45
280
     0
102
RTVSPost2010PropOp45
 70
     1
102
RTVSPost2010Prop46
 90
       50
102
RTVSPost2010PropOp46
 70
     1
102
RTVSPost2010Prop47
 90
       50
102
RTVSPost2010PropOp47
 70
     1
102
RTVSPost2010Prop48
 90
       50
102
RTVSPost2010PropOp48
 70
     1
102
RTVSPost2010Prop49
280
     0
102
RTVSPost2010PropOp49
 70
     1
102
RTVSPost2010Prop50
 90
       50
102
RTVSPost2010PropOp50
 70
     1
102
RTVSPost2010Prop51ColorIndex
 90
      256
102
RTVSPost2010Prop51ColorRGB
 90
-16777216
102
RTVSPost2010PropOp51
 70
     0
102
RTVSPost2010Prop52
140
1.0
102
RTVSPost2010PropOp52
 70
     0
102
RTVSPost2010Prop53
 90
        2
102
RTVSPost2010PropOp53
 70
     1
102
RTVSPost2010Prop54
  1
strokes_ogs.tif
102
RTVSPost2010PropOp54
 70
     1
102
RTVSPost2010Prop55
280
     0
102
RTVSPost2010PropOp55
 70
     1
102
RTVSPost2010Prop56
140
1.0
102
RTVSPost2010PropOp56
 70
     1
102
RTVSPost2010Prop57
140
1.0
102
RTVSPost2010PropOp57
 70
     1
  0
XRECORD
  5
F7
102
{ACAD_REACTORS
330
F6
102
}
330
F6
100
AcDbXrecord
280
     1
102
RTVSPropertyOp0
 70
     0
102
RTVSPropertyOp1
 70
     0
102
RTVSPropertyOp2
 70
     0
102
RTVSPropertyOp3
 70
     0
102
RTVSPropertyOp4
 70
     0
102
RTVSPropertyOp5
 70
     0
102
RTVSPropertyOp6
 70
     0
102
RTVSPropertyOp7
 70
     0
102
RTVSPropertyOp8
 70
     0
102
RTVSPropertyOp9
 70
     0
102
RTVSPropertyOp10
 70
     0
102
RTVSPropertyOp11
 70
     0
102
RTVSPropertyOp12
 70
     0
102
RTVSPropertyOp13
 70
     0
102
RTVSPropertyOp14
 70
     2
102
RTVSPropertyOp15
 70
     0
102
RTVSPropertyOp16
 70
     0
102
RTVSPropertyOp17
 70
     0
102
RTVSPropertyOp18
 70
     0
102
RTVSPropertyOp19
 70
     0
102
RTVSPropertyOp20
 70
     0
102
RTVSPropertyOp21
 70
     0
102
RTVSPropertyOp22
 70
     0
102
RTVSPropertyOp23
 70
     0
102
RTVSPropertyOp24
 70
     0
102
RTVSPropertyOp25
 70
     0
102
RTVSPropertyOp26
 70
     0
102
RTVSPropertyOp27
 70
     0
102
RTVSPropertyOp28
 70
     0
102
RTVSPropertyOp29
 70
     0
102
RTVSPropertyOp30
 70
     0
102
RTVSPropertyOp31
 70
     0
102
RTVSPropertyOp32
 70
     0
102
RTVSPropertyOp33
 70
     0
102
RTVSPropertyOp34
 70
     0
102
RTVSPropertyOp35
 70
     0
102
RTVSPropertyOp36
 70
     0
102
RTVSPropertyOp37
 70
     0
102
RTVSPropertyOp38
 70
     0
102
RTVSPropertyOp39
 70
     0
102
RTVSPropertyOp40
 70
     0
102
RTVSPropertyOp41
 70
     0
102
RTVSPropertyOp42
 70
     0
102
RTVSPropertyOp43
 70
     0
102
RTVSPropertyOp44
 70
     0
102
RTVSPropertyOp45
 70
     0
102
RTVSPropertyOp46
 70
     0
102
RTVSPropertyOp47
 70
     0
102
RTVSPropertyOp48
 70
     0
102
RTVSPropertyOp49
 70
     0
102
RTVSPropertyOp50
 70
     0
102
RTVSPropertyOp51
 70
     0
102
RTVSPropertyOp52
 70
     0
102
RTVSPropertyOp53
 70
     0
102
RTVSPropertyOp54
 70
     0
102
RTVSPropertyOp55
 70
     0
102
RTVSPropertyOp56
 70
     0
102
RTVSPropertyOp57
 70
     0
102
RTVSPost2010Prop28
280
     0
102
RTVSPost2010PropOp28
 70
     0
102
RTVSPost2010Prop29
280
     1
102
RTVSPost2010PropOp29
 70
     0
102
RTVSPost2010Prop30
280
     1
102
RTVSPost2010PropOp30
 70
     0
102
RTVSPost2010Prop31
280
     0
102
RTVSPost2010PropOp31
 70
     0
102
RTVSPost2010Prop32
280
     0
102
RTVSPost2010PropOp32
 70
     0
102
RTVSPost2010Prop33
280
     0
102
RTVSPost2010PropOp33
 70
     0
102
RTVSPost2010Prop34
280
     0
102
RTVSPost2010PropOp34
 70
     0
102
RTVSPost2010Prop35
280
     0
102
RTVSPost2010PropOp35
 70
     0
102
RTVSPost2010Prop36
280
     0
102
RTVSPost2010PropOp36
 70
     0
102
RTVSPost2010Prop37
 90
       50
102
RTVSPost2010PropOp37
 70
     0
102
RTVSPost2010Prop38
140
0.0
102
RTVSPost2010PropOp38
 70
     0
102
RTVSPost2010Prop39
140
1.0
102
RTVSPost2010PropOp39
 70
     0
102
RTVSPost2010Prop40
 90
        0
102
RTVSPost2010PropOp40
 70
     0
102
RTVSPost2010Prop41ColorIndex
 90
       18
102
RTVSPost2010Prop41ColorRGB
 90
        0
102
RTVSPost2010PropOp41
 70
     0
102
RTVSPost2010Prop42
 90
       50
102
RTVSPost2010PropOp42
 70
     0
102
RTVSPost2010Prop43
 90
        3
102
RTVSPost2010PropOp43
 70
     0
102
RTVSPost2010Prop44ColorIndex
 90
        5
102
RTVSPost2010Prop44ColorRGB
 90
      255
102
RTVSPost2010PropOp44
 70
     0
102
RTVSPost2010Prop45
280
     0
102
RTVSPost2010PropOp45
 70
     0
102
RTVSPost2010Prop46
 90
       50
102
RTVSPost2010PropOp46
 70
     0
102
RTVSPost2010Prop47
 90
       50
102
RTVSPost2010PropOp47
 70
     0
102
RTVSPost2010Prop48
 90
       50
102
RTVSPost2010PropOp48
 70
     0
102
RTVSPost2010Prop49
280
     0
102
RTVSPost2010PropOp49
 70
     0
102
RTVSPost2010Prop50
 90
       50
102
RTVSPost2010PropOp50
 70
     0
102
RTVSPost2010Prop51ColorIndex
 90
      256
102
RTVSPost2010Prop51ColorRGB
 90
-16777216
102
RTVSPost2010PropOp51
 70
     0
102
RTVSPost2010Prop52
140
1.0
102
RTVSPost2010PropOp52
 70
     0
102
RTVSPost2010Prop53
 90
        2
102
RTVSPost2010PropOp53
 70
     0
102
RTVSPost2010Prop54
  1
strokes_ogs.tif
102
RTVSPost2010PropOp54
 70
     0
102
RTVSPost2010Prop55
280
     0
102
RTVSPost2010PropOp55
 70
     0
102
RTVSPost2010Prop56
140
1.0
102
RTVSPost2010PropOp56
 70
     0
102
RTVSPost2010Prop57
140
1.0
102
RTVSPost2010PropOp57
 70
     0
  0
XRECORD
  5
EF
102
{ACAD_REACTORS
330
EE
102
}
330
EE
100
AcDbXrecord
280
     1
102
RTVSPropertyOp0
 70
     1
102
RTVSPropertyOp1
 70
     1
102
RTVSPropertyOp2
 70
     1
102
RTVSPropertyOp3
 70
     1
102
RTVSPropertyOp4
 70
     1
102
RTVSPropertyOp5
 70
     1
102
RTVSPropertyOp6
 70
     1
102
RTVSPropertyOp7
 70
     1
102
RTVSPropertyOp8
 70
     1
102
RTVSPropertyOp9
 70
     1
102
RTVSPropertyOp10
 70
     1
102
RTVSPropertyOp11
 70
     1
102
RTVSPropertyOp12
 70
     1
102
RTVSPropertyOp13
 70
     1
102
RTVSPropertyOp14
 70
     1
102
RTVSPropertyOp15
 70
     1
102
RTVSPropertyOp16
 70
     1
102
RTVSPropertyOp17
 70
     1
102
RTVSPropertyOp18
 70
     1
102
RTVSPropertyOp19
 70
     1
102
RTVSPropertyOp20
 70
     1
102
RTVSPropertyOp21
 70
     1
102
RTVSPropertyOp22
 70
     1
102
RTVSPropertyOp23
 70
     1
102
RTVSPropertyOp24
 70
     1
102
RTVSPropertyOp25
 70
     1
102
RTVSPropertyOp26
 70
     1
102
RTVSPropertyOp27
 70
     1
102
RTVSPropertyOp28
 70
     1
102
RTVSPropertyOp29
 70
     1
102
RTVSPropertyOp30
 70
     1
102
RTVSPropertyOp31
 70
     1
102
RTVSPropertyOp32
 70
     1
102
RTVSPropertyOp33
 70
     1
102
RTVSPropertyOp34
 70
     1
102
RTVSPropertyOp35
 70
     1
102
RTVSPropertyOp36
 70
     1
102
RTVSPropertyOp37
 70
     1
102
RTVSPropertyOp38
 70
     1
102
RTVSPropertyOp39
 70
     1
102
RTVSPropertyOp40
 70
     1
102
RTVSPropertyOp41
 70
     1
102
RTVSPropertyOp42
 70
     1
102
RTVSPropertyOp43
 70
     1
102
RTVSPropertyOp44
 70
     1
102
RTVSPropertyOp45
 70
     1
102
RTVSPropertyOp46
 70
     1
102
RTVSPropertyOp47
 70
     1
102
RTVSPropertyOp48
 70
     1
102
RTVSPropertyOp49
 70
     1
102
RTVSPropertyOp50
 70
     1
102
RTVSPropertyOp51
 70
     0
102
RTVSPropertyOp52
 70
     0
102
RTVSPropertyOp53
 70
     1
102
RTVSPropertyOp54
 70
     1
102
RTVSPropertyOp55
 70
     1
102
RTVSPropertyOp56
 70
     1
102
RTVSPropertyOp57
 70
     1
102
RTVSPost2010Prop28
280
     0
102
RTVSPost2010PropOp28
 70
     1
102
RTVSPost2010Prop29
280
     1
102
RTVSPost2010PropOp29
 70
     1
102
RTVSPost2010Prop30
280
     1
102
RTVSPost2010PropOp30
 70
     1
102
RTVSPost2010Prop31
280
     0
102
RTVSPost2010PropOp31
 70
     1
102
RTVSPost2010Prop32
280
     0
102
RTVSPost2010PropOp32
 70
     1
102
RTVSPost2010Prop33
280
     0
102
RTVSPost2010PropOp33
 70
     1
102
RTVSPost2010Prop34
280
     0
102
RTVSPost2010PropOp34
 70
     1
102
RTVSPost2010Prop35
280
     0
102
RTVSPost2010PropOp35
 70
     1
102
RTVSPost2010Prop36
280
     0
102
RTVSPost2010PropOp36
 70
     1
102
RTVSPost2010Prop37
 90
       50
102
RTVSPost2010PropOp37
 70
     1
102
RTVSPost2010Prop38
140
0.0
102
RTVSPost2010PropOp38
 70
     1
102
RTVSPost2010Prop39
140
1.0
102
RTVSPost2010PropOp39
 70
     1
102
RTVSPost2010Prop40
 90
        0
102
RTVSPost2010PropOp40
 70
     1
102
RTVSPost2010Prop41ColorIndex
 90
       18
102
RTVSPost2010Prop41ColorRGB
 90
        0
102
RTVSPost2010PropOp41
 70
     1
102
RTVSPost2010Prop42
 90
       50
102
RTVSPost2010PropOp42
 70
     1
102
RTVSPost2010Prop43
 90
        3
102
RTVSPost2010PropOp43
 70
     1
102
RTVSPost2010Prop44ColorIndex
 90
        5
102
RTVSPost2010Prop44ColorRGB
 90
      255
102
RTVSPost2010PropOp44
 70
     1
102
RTVSPost2010Prop45
280
     0
102
RTVSPost2010PropOp45
 70
     1
102
RTVSPost2010Prop46
 90
       50
102
RTVSPost2010PropOp46
 70
     1
102
RTVSPost2010Prop47
 90
       50
102
RTVSPost2010PropOp47
 70
     1
102
RTVSPost2010Prop48
 90
       50
102
RTVSPost2010PropOp48
 70
     1
102
RTVSPost2010Prop49
280
     0
102
RTVSPost2010PropOp49
 70
     1
102
RTVSPost2010Prop50
 90
       50
102
RTVSPost2010PropOp50
 70
     1
102
RTVSPost2010Prop51ColorIndex
 90
      256
102
RTVSPost2010Prop51ColorRGB
 90
-16777216
102
RTVSPost2010PropOp51
 70
     0
102
RTVSPost2010Prop52
140
1.0
102
RTVSPost2010PropOp52
 70
     0
102
RTVSPost2010Prop53
 90
        2
102
RTVSPost2010PropOp53
 70
     1
102
RTVSPost2010Prop54
  1
strokes_ogs.tif
102
RTVSPost2010PropOp54
 70
     1
102
RTVSPost2010Prop55
280
     0
102
RTVSPost2010PropOp55
 70
     1
102
RTVSPost2010Prop56
140
1.0
102
RTVSPost2010PropOp56
 70
     1
102
RTVSPost2010Prop57
140
1.0
102
RTVSPost2010PropOp57
 70
     1
  0
XRECORD
  5
D3
102
{ACAD_REACTORS
330
D2
102
}
330
D2
100
AcDbXrecord
280
     1
102
RTVSPropertyOp0
 70
     1
102
RTVSPropertyOp1
 70
     1
102
RTVSPropertyOp2
 70
     1
102
RTVSPropertyOp3
 70
     1
102
RTVSPropertyOp4
 70
     1
102
RTVSPropertyOp5
 70
     1
102
RTVSPropertyOp6
 70
     1
102
RTVSPropertyOp7
 70
     1
102
RTVSPropertyOp8
 70
     1
102
RTVSPropertyOp9
 70
     1
102
RTVSPropertyOp10
 70
     1
102
RTVSPropertyOp11
 70
     1
102
RTVSPropertyOp12
 70
     1
102
RTVSPropertyOp13
 70
     1
102
RTVSPropertyOp14
 70
     1
102
RTVSPropertyOp15
 70
     1
102
RTVSPropertyOp16
 70
     1
102
RTVSPropertyOp17
 70
     1
102
RTVSPropertyOp18
 70
     1
102
RTVSPropertyOp19
 70
     1
102
RTVSPropertyOp20
 70
     1
102
RTVSPropertyOp21
 70
     1
102
RTVSPropertyOp22
 70
     1
102
RTVSPropertyOp23
 70
     1
102
RTVSPropertyOp24
 70
     1
102
RTVSPropertyOp25
 70
     1
102
RTVSPropertyOp26
 70
     1
102
RTVSPropertyOp27
 70
     1
102
RTVSPropertyOp28
 70
     1
102
RTVSPropertyOp29
 70
     1
102
RTVSPropertyOp30
 70
     1
102
RTVSPropertyOp31
 70
     1
102
RTVSPropertyOp32
 70
     1
102
RTVSPropertyOp33
 70
     1
102
RTVSPropertyOp34
 70
     1
102
RTVSPropertyOp35
 70
     1
102
RTVSPropertyOp36
 70
     1
102
RTVSPropertyOp37
 70
     1
102
RTVSPropertyOp38
 70
     1
102
RTVSPropertyOp39
 70
     1
102
RTVSPropertyOp40
 70
     1
102
RTVSPropertyOp41
 70
     1
102
RTVSPropertyOp42
 70
     1
102
RTVSPropertyOp43
 70
     1
102
RTVSPropertyOp44
 70
     1
102
RTVSPropertyOp45
 70
     1
102
RTVSPropertyOp46
 70
     1
102
RTVSPropertyOp47
 70
     1
102
RTVSPropertyOp48
 70
     1
102
RTVSPropertyOp49
 70
     1
102
RTVSPropertyOp50
 70
     1
102
RTVSPropertyOp51
 70
     0
102
RTVSPropertyOp52
 70
     0
102
RTVSPropertyOp53
 70
     1
102
RTVSPropertyOp54
 70
     1
102
RTVSPropertyOp55
 70
     1
102
RTVSPropertyOp56
 70
     1
102
RTVSPropertyOp57
 70
     1
102
RTVSPost2010Prop28
280
     0
102
RTVSPost2010PropOp28
 70
     1
102
RTVSPost2010Prop29
280
     1
102
RTVSPost2010PropOp29
 70
     1
102
RTVSPost2010Prop30
280
     1
102
RTVSPost2010PropOp30
 70
     1
102
RTVSPost2010Prop31
280
     0
102
RTVSPost2010PropOp31
 70
     1
102
RTVSPost2010Prop32
280
     0
102
RTVSPost2010PropOp32
 70
     1
102
RTVSPost2010Prop33
280
     0
102
RTVSPost2010PropOp33
 70
     1
102
RTVSPost2010Prop34
280
     0
102
RTVSPost2010PropOp34
 70
     1
102
RTVSPost2010Prop35
280
     0
102
RTVSPost2010PropOp35
 70
     1
102
RTVSPost2010Prop36
280
     0
102
RTVSPost2010PropOp36
 70
     1
102
RTVSPost2010Prop37
 90
       50
102
RTVSPost2010PropOp37
 70
     1
102
RTVSPost2010Prop38
140
0.0
102
RTVSPost2010PropOp38
 70
     1
102
RTVSPost2010Prop39
140
1.0
102
RTVSPost2010PropOp39
 70
     1
102
RTVSPost2010Prop40
 90
        0
102
RTVSPost2010PropOp40
 70
     1
102
RTVSPost2010Prop41ColorIndex
 90
       18
102
RTVSPost2010Prop41ColorRGB
 90
        0
102
RTVSPost2010PropOp41
 70
     1
102
RTVSPost2010Prop42
 90
       50
102
RTVSPost2010PropOp42
 70
     1
102
RTVSPost2010Prop43
 90
        3
102
RTVSPost2010PropOp43
 70
     1
102
RTVSPost2010Prop44ColorIndex
 90
        5
102
RTVSPost2010Prop44ColorRGB
 90
      255
102
RTVSPost2010PropOp44
 70
     1
102
RTVSPost2010Prop45
280
     0
102
RTVSPost2010PropOp45
 70
     1
102
RTVSPost2010Prop46
 90
       50
102
RTVSPost2010PropOp46
 70
     1
102
RTVSPost2010Prop47
 90
       50
102
RTVSPost2010PropOp47
 70
     1
102
RTVSPost2010Prop48
 90
       50
102
RTVSPost2010PropOp48
 70
     1
102
RTVSPost2010Prop49
280
     0
102
RTVSPost2010PropOp49
 70
     1
102
RTVSPost2010Prop50
 90
       50
102
RTVSPost2010PropOp50
 70
     1
102
RTVSPost2010Prop51ColorIndex
 90
      256
102
RTVSPost2010Prop51ColorRGB
 90
-16777216
102
RTVSPost2010PropOp51
 70
     0
102
RTVSPost2010Prop52
140
1.0
102
RTVSPost2010PropOp52
 70
     0
102
RTVSPost2010Prop53
 90
        2
102
RTVSPost2010PropOp53
 70
     1
102
RTVSPost2010Prop54
  1
strokes_ogs.tif
102
RTVSPost2010PropOp54
 70
     1
102
RTVSPost2010Prop55
280
     0
102
RTVSPost2010PropOp55
 70
     1
102
RTVSPost2010Prop56
140
1.0
102
RTVSPost2010PropOp56
 70
     1
102
RTVSPost2010Prop57
140
1.0
102
RTVSPost2010PropOp57
 70
     1
  0
XRECORD
  5
D5
102
{ACAD_REACTORS
330
D4
102
}
330
D4
100
AcDbXrecord
280
     1
102
RTVSPropertyOp0
 70
     1
102
RTVSPropertyOp1
 70
     1
102
RTVSPropertyOp2
 70
     1
102
RTVSPropertyOp3
 70
     1
102
RTVSPropertyOp4
 70
     1
102
RTVSPropertyOp5
 70
     1
102
RTVSPropertyOp6
 70
     1
102
RTVSPropertyOp7
 70
     1
102
RTVSPropertyOp8
 70
     1
102
RTVSPropertyOp9
 70
     1
102
RTVSPropertyOp10
 70
     1
102
RTVSPropertyOp11
 70
     1
102
RTVSPropertyOp12
 70
     1
102
RTVSPropertyOp13
 70
     1
102
RTVSPropertyOp14
 70
     1
102
RTVSPropertyOp15
 70
     1
102
RTVSPropertyOp16
 70
     1
102
RTVSPropertyOp17
 70
     1
102
RTVSPropertyOp18
 70
     1
102
RTVSPropertyOp19
 70
     1
102
RTVSPropertyOp20
 70
     1
102
RTVSPropertyOp21
 70
     1
102
RTVSPropertyOp22
 70
     1
102
RTVSPropertyOp23
 70
     1
102
RTVSPropertyOp24
 70
     1
102
RTVSPropertyOp25
 70
     1
102
RTVSPropertyOp26
 70
     1
102
RTVSPropertyOp27
 70
     1
102
RTVSPropertyOp28
 70
     1
102
RTVSPropertyOp29
 70
     1
102
RTVSPropertyOp30
 70
     1
102
RTVSPropertyOp31
 70
     1
102
RTVSPropertyOp32
 70
     1
102
RTVSPropertyOp33
 70
     1
102
RTVSPropertyOp34
 70
     1
102
RTVSPropertyOp35
 70
     1
102
RTVSPropertyOp36
 70
     1
102
RTVSPropertyOp37
 70
     1
102
RTVSPropertyOp38
 70
     1
102
RTVSPropertyOp39
 70
     1
102
RTVSPropertyOp40
 70
     1
102
RTVSPropertyOp41
 70
     1
102
RTVSPropertyOp42
 70
     1
102
RTVSPropertyOp43
 70
     1
102
RTVSPropertyOp44
 70
     1
102
RTVSPropertyOp45
 70
     1
102
RTVSPropertyOp46
 70
     1
102
RTVSPropertyOp47
 70
     1
102
RTVSPropertyOp48
 70
     1
102
RTVSPropertyOp49
 70
     1
102
RTVSPropertyOp50
 70
     1
102
RTVSPropertyOp51
 70
     0
102
RTVSPropertyOp52
 70
     0
102
RTVSPropertyOp53
 70
     1
102
RTVSPropertyOp54
 70
     1
102
RTVSPropertyOp55
 70
     1
102
RTVSPropertyOp56
 70
     1
102
RTVSPropertyOp57
 70
     1
102
RTVSPost2010Prop28
280
     0
102
RTVSPost2010PropOp28
 70
     1
102
RTVSPost2010Prop29
280
     1
102
RTVSPost2010PropOp29
 70
     1
102
RTVSPost2010Prop30
280
     1
102
RTVSPost2010PropOp30
 70
     1
102
RTVSPost2010Prop31
280
     0
102
RTVSPost2010PropOp31
 70
     1
102
RTVSPost2010Prop32
280
     0
102
RTVSPost2010PropOp32
 70
     1
102
RTVSPost2010Prop33
280
     0
102
RTVSPost2010PropOp33
 70
     1
102
RTVSPost2010Prop34
280
     0
102
RTVSPost2010PropOp34
 70
     1
102
RTVSPost2010Prop35
280
     0
102
RTVSPost2010PropOp35
 70
     1
102
RTVSPost2010Prop36
280
     0
102
RTVSPost2010PropOp36
 70
     1
102
RTVSPost2010Prop37
 90
       50
102
RTVSPost2010PropOp37
 70
     1
102
RTVSPost2010Prop38
140
0.0
102
RTVSPost2010PropOp38
 70
     1
102
RTVSPost2010Prop39
140
1.0
102
RTVSPost2010PropOp39
 70
     1
102
RTVSPost2010Prop40
 90
        0
102
RTVSPost2010PropOp40
 70
     1
102
RTVSPost2010Prop41ColorIndex
 90
       18
102
RTVSPost2010Prop41ColorRGB
 90
        0
102
RTVSPost2010PropOp41
 70
     1
102
RTVSPost2010Prop42
 90
       50
102
RTVSPost2010PropOp42
 70
     1
102
RTVSPost2010Prop43
 90
        3
102
RTVSPost2010PropOp43
 70
     1
102
RTVSPost2010Prop44ColorIndex
 90
        5
102
RTVSPost2010Prop44ColorRGB
 90
      255
102
RTVSPost2010PropOp44
 70
     1
102
RTVSPost2010Prop45
280
     0
102
RTVSPost2010PropOp45
 70
     1
102
RTVSPost2010Prop46
 90
       50
102
RTVSPost2010PropOp46
 70
     1
102
RTVSPost2010Prop47
 90
       50
102
RTVSPost2010PropOp47
 70
     1
102
RTVSPost2010Prop48
 90
       50
102
RTVSPost2010PropOp48
 70
     1
102
RTVSPost2010Prop49
280
     0
102
RTVSPost2010PropOp49
 70
     1
102
RTVSPost2010Prop50
 90
       50
102
RTVSPost2010PropOp50
 70
     1
102
RTVSPost2010Prop51ColorIndex
 90
      256
102
RTVSPost2010Prop51ColorRGB
 90
-16777216
102
RTVSPost2010PropOp51
 70
     0
102
RTVSPost2010Prop52
140
1.0
102
RTVSPost2010PropOp52
 70
     0
102
RTVSPost2010Prop53
 90
        2
102
RTVSPost2010PropOp53
 70
     1
102
RTVSPost2010Prop54
  1
strokes_ogs.tif
102
RTVSPost2010PropOp54
 70
     1
102
RTVSPost2010Prop55
280
     0
102
RTVSPost2010PropOp55
 70
     1
102
RTVSPost2010Prop56
140
1.0
102
RTVSPost2010PropOp56
 70
     1
102
RTVSPost2010Prop57
140
1.0
102
RTVSPost2010PropOp57
 70
     1
  0
XRECORD
  5
D7
102
{ACAD_REACTORS
330
D6
102
}
330
D6
100
AcDbXrecord
280
     1
102
RTVSPropertyOp0
 70
     1
102
RTVSPropertyOp1
 70
     1
102
RTVSPropertyOp2
 70
     1
102
RTVSPropertyOp3
 70
     1
102
RTVSPropertyOp4
 70
     1
102
RTVSPropertyOp5
 70
     1
102
RTVSPropertyOp6
 70
     1
102
RTVSPropertyOp7
 70
     1
102
RTVSPropertyOp8
 70
     1
102
RTVSPropertyOp9
 70
     1
102
RTVSPropertyOp10
 70
     1
102
RTVSPropertyOp11
 70
     1
102
RTVSPropertyOp12
 70
     1
102
RTVSPropertyOp13
 70
     1
102
RTVSPropertyOp14
 70
     1
102
RTVSPropertyOp15
 70
     1
102
RTVSPropertyOp16
 70
     1
102
RTVSPropertyOp17
 70
     1
102
RTVSPropertyOp18
 70
     1
102
RTVSPropertyOp19
 70
     1
102
RTVSPropertyOp20
 70
     1
102
RTVSPropertyOp21
 70
     1
102
RTVSPropertyOp22
 70
     1
102
RTVSPropertyOp23
 70
     1
102
RTVSPropertyOp24
 70
     1
102
RTVSPropertyOp25
 70
     1
102
RTVSPropertyOp26
 70
     1
102
RTVSPropertyOp27
 70
     1
102
RTVSPropertyOp28
 70
     1
102
RTVSPropertyOp29
 70
     1
102
RTVSPropertyOp30
 70
     1
102
RTVSPropertyOp31
 70
     1
102
RTVSPropertyOp32
 70
     1
102
RTVSPropertyOp33
 70
     1
102
RTVSPropertyOp34
 70
     1
102
RTVSPropertyOp35
 70
     1
102
RTVSPropertyOp36
 70
     1
102
RTVSPropertyOp37
 70
     1
102
RTVSPropertyOp38
 70
     1
102
RTVSPropertyOp39
 70
     1
102
RTVSPropertyOp40
 70
     1
102
RTVSPropertyOp41
 70
     1
102
RTVSPropertyOp42
 70
     1
102
RTVSPropertyOp43
 70
     1
102
RTVSPropertyOp44
 70
     1
102
RTVSPropertyOp45
 70
     1
102
RTVSPropertyOp46
 70
     1
102
RTVSPropertyOp47
 70
     1
102
RTVSPropertyOp48
 70
     1
102
RTVSPropertyOp49
 70
     1
102
RTVSPropertyOp50
 70
     1
102
RTVSPropertyOp51
 70
     0
102
RTVSPropertyOp52
 70
     0
102
RTVSPropertyOp53
 70
     1
102
RTVSPropertyOp54
 70
     1
102
RTVSPropertyOp55
 70
     1
102
RTVSPropertyOp56
 70
     1
102
RTVSPropertyOp57
 70
     1
102
RTVSPost2010Prop28
280
     0
102
RTVSPost2010PropOp28
 70
     1
102
RTVSPost2010Prop29
280
     1
102
RTVSPost2010PropOp29
 70
     1
102
RTVSPost2010Prop30
280
     1
102
RTVSPost2010PropOp30
 70
     1
102
RTVSPost2010Prop31
280
     0
102
RTVSPost2010PropOp31
 70
     1
102
RTVSPost2010Prop32
280
     0
102
RTVSPost2010PropOp32
 70
     1
102
RTVSPost2010Prop33
280
     0
102
RTVSPost2010PropOp33
 70
     1
102
RTVSPost2010Prop34
280
     0
102
RTVSPost2010PropOp34
 70
     1
102
RTVSPost2010Prop35
280
     0
102
RTVSPost2010PropOp35
 70
     1
102
RTVSPost2010Prop36
280
     0
102
RTVSPost2010PropOp36
 70
     1
102
RTVSPost2010Prop37
 90
       50
102
RTVSPost2010PropOp37
 70
     1
102
RTVSPost2010Prop38
140
0.0
102
RTVSPost2010PropOp38
 70
     1
102
RTVSPost2010Prop39
140
1.0
102
RTVSPost2010PropOp39
 70
     1
102
RTVSPost2010Prop40
 90
        0
102
RTVSPost2010PropOp40
 70
     1
102
RTVSPost2010Prop41ColorIndex
 90
       18
102
RTVSPost2010Prop41ColorRGB
 90
        0
102
RTVSPost2010PropOp41
 70
     1
102
RTVSPost2010Prop42
 90
       50
102
RTVSPost2010PropOp42
 70
     1
102
RTVSPost2010Prop43
 90
        3
102
RTVSPost2010PropOp43
 70
     1
102
RTVSPost2010Prop44ColorIndex
 90
        5
102
RTVSPost2010Prop44ColorRGB
 90
      255
102
RTVSPost2010PropOp44
 70
     1
102
RTVSPost2010Prop45
280
     0
102
RTVSPost2010PropOp45
 70
     1
102
RTVSPost2010Prop46
 90
       50
102
RTVSPost2010PropOp46
 70
     1
102
RTVSPost2010Prop47
 90
       50
102
RTVSPost2010PropOp47
 70
     1
102
RTVSPost2010Prop48
 90
       50
102
RTVSPost2010PropOp48
 70
     1
102
RTVSPost2010Prop49
280
     0
102
RTVSPost2010PropOp49
 70
     1
102
RTVSPost2010Prop50
 90
       50
102
RTVSPost2010PropOp50
 70
     1
102
RTVSPost2010Prop51ColorIndex
 90
      256
102
RTVSPost2010Prop51ColorRGB
 90
-16777216
102
RTVSPost2010PropOp51
 70
     0
102
RTVSPost2010Prop52
140
1.0
102
RTVSPost2010PropOp52
 70
     0
102
RTVSPost2010Prop53
 90
        2
102
RTVSPost2010PropOp53
 70
     1
102
RTVSPost2010Prop54
  1
strokes_ogs.tif
102
RTVSPost2010PropOp54
 70
     1
102
RTVSPost2010Prop55
280
     0
102
RTVSPost2010PropOp55
 70
     1
102
RTVSPost2010Prop56
140
1.0
102
RTVSPost2010PropOp56
 70
     1
102
RTVSPost2010Prop57
140
1.0
102
RTVSPost2010PropOp57
 70
     1
  0
XRECORD
  5
D9
102
{ACAD_REACTORS
330
D8
102
}
330
D8
100
AcDbXrecord
280
     1
102
RTVSPropertyOp0
 70
     1
102
RTVSPropertyOp1
 70
     1
102
RTVSPropertyOp2
 70
     1
102
RTVSPropertyOp3
 70
     1
102
RTVSPropertyOp4
 70
     1
102
RTVSPropertyOp5
 70
     1
102
RTVSPropertyOp6
 70
     1
102
RTVSPropertyOp7
 70
     1
102
RTVSPropertyOp8
 70
     1
102
RTVSPropertyOp9
 70
     1
102
RTVSPropertyOp10
 70
     1
102
RTVSPropertyOp11
 70
     1
102
RTVSPropertyOp12
 70
     1
102
RTVSPropertyOp13
 70
     1
102
RTVSPropertyOp14
 70
     1
102
RTVSPropertyOp15
 70
     1
102
RTVSPropertyOp16
 70
     1
102
RTVSPropertyOp17
 70
     1
102
RTVSPropertyOp18
 70
     1
102
RTVSPropertyOp19
 70
     1
102
RTVSPropertyOp20
 70
     1
102
RTVSPropertyOp21
 70
     1
102
RTVSPropertyOp22
 70
     1
102
RTVSPropertyOp23
 70
     1
102
RTVSPropertyOp24
 70
     1
102
RTVSPropertyOp25
 70
     1
102
RTVSPropertyOp26
 70
     1
102
RTVSPropertyOp27
 70
     1
102
RTVSPropertyOp28
 70
     1
102
RTVSPropertyOp29
 70
     1
102
RTVSPropertyOp30
 70
     1
102
RTVSPropertyOp31
 70
     1
102
RTVSPropertyOp32
 70
     1
102
RTVSPropertyOp33
 70
     1
102
RTVSPropertyOp34
 70
     1
102
RTVSPropertyOp35
 70
     1
102
RTVSPropertyOp36
 70
     1
102
RTVSPropertyOp37
 70
     1
102
RTVSPropertyOp38
 70
     1
102
RTVSPropertyOp39
 70
     1
102
RTVSPropertyOp40
 70
     1
102
RTVSPropertyOp41
 70
     1
102
RTVSPropertyOp42
 70
     1
102
RTVSPropertyOp43
 70
     1
102
RTVSPropertyOp44
 70
     1
102
RTVSPropertyOp45
 70
     1
102
RTVSPropertyOp46
 70
     1
102
RTVSPropertyOp47
 70
     1
102
RTVSPropertyOp48
 70
     1
102
RTVSPropertyOp49
 70
     1
102
RTVSPropertyOp50
 70
     1
102
RTVSPropertyOp51
 70
     0
102
RTVSPropertyOp52
 70
     0
102
RTVSPropertyOp53
 70
     1
102
RTVSPropertyOp54
 70
     1
102
RTVSPropertyOp55
 70
     1
102
RTVSPropertyOp56
 70
     1
102
RTVSPropertyOp57
 70
     1
102
RTVSPost2010Prop28
280
     0
102
RTVSPost2010PropOp28
 70
     1
102
RTVSPost2010Prop29
280
     1
102
RTVSPost2010PropOp29
 70
     1
102
RTVSPost2010Prop30
280
     1
102
RTVSPost2010PropOp30
 70
     1
102
RTVSPost2010Prop31
280
     0
102
RTVSPost2010PropOp31
 70
     1
102
RTVSPost2010Prop32
280
     0
102
RTVSPost2010PropOp32
 70
     1
102
RTVSPost2010Prop33
280
     0
102
RTVSPost2010PropOp33
 70
     1
102
RTVSPost2010Prop34
280
     0
102
RTVSPost2010PropOp34
 70
     1
102
RTVSPost2010Prop35
280
     0
102
RTVSPost2010PropOp35
 70
     1
102
RTVSPost2010Prop36
280
     0
102
RTVSPost2010PropOp36
 70
     1
102
RTVSPost2010Prop37
 90
       50
102
RTVSPost2010PropOp37
 70
     1
102
RTVSPost2010Prop38
140
0.0
102
RTVSPost2010PropOp38
 70
     1
102
RTVSPost2010Prop39
140
1.0
102
RTVSPost2010PropOp39
 70
     1
102
RTVSPost2010Prop40
 90
        0
102
RTVSPost2010PropOp40
 70
     1
102
RTVSPost2010Prop41ColorIndex
 90
       18
102
RTVSPost2010Prop41ColorRGB
 90
        0
102
RTVSPost2010PropOp41
 70
     1
102
RTVSPost2010Prop42
 90
       50
102
RTVSPost2010PropOp42
 70
     1
102
RTVSPost2010Prop43
 90
        3
102
RTVSPost2010PropOp43
 70
     1
102
RTVSPost2010Prop44ColorIndex
 90
        5
102
RTVSPost2010Prop44ColorRGB
 90
      255
102
RTVSPost2010PropOp44
 70
     1
102
RTVSPost2010Prop45
280
     0
102
RTVSPost2010PropOp45
 70
     1
102
RTVSPost2010Prop46
 90
       50
102
RTVSPost2010PropOp46
 70
     1
102
RTVSPost2010Prop47
 90
       50
102
RTVSPost2010PropOp47
 70
     1
102
RTVSPost2010Prop48
 90
       50
102
RTVSPost2010PropOp48
 70
     1
102
RTVSPost2010Prop49
280
     0
102
RTVSPost2010PropOp49
 70
     1
102
RTVSPost2010Prop50
 90
       50
102
RTVSPost2010PropOp50
 70
     1
102
RTVSPost2010Prop51ColorIndex
 90
      256
102
RTVSPost2010Prop51ColorRGB
 90
-16777216
102
RTVSPost2010PropOp51
 70
     0
102
RTVSPost2010Prop52
140
1.0
102
RTVSPost2010PropOp52
 70
     0
102
RTVSPost2010Prop53
 90
        2
102
RTVSPost2010PropOp53
 70
     1
102
RTVSPost2010Prop54
  1
strokes_ogs.tif
102
RTVSPost2010PropOp54
 70
     1
102
RTVSPost2010Prop55
280
     0
102
RTVSPost2010PropOp55
 70
     1
102
RTVSPost2010Prop56
140
1.0
102
RTVSPost2010PropOp56
 70
     1
102
RTVSPost2010Prop57
140
1.0
102
RTVSPost2010PropOp57
 70
     1
  0
XRECORD
  5
DF
102
{ACAD_REACTORS
330
DE
102
}
330
DE
100
AcDbXrecord
280
     1
102
RTVSPropertyOp0
 70
     1
102
RTVSPropertyOp1
 70
     1
102
RTVSPropertyOp2
 70
     1
102
RTVSPropertyOp3
 70
     1
102
RTVSPropertyOp4
 70
     1
102
RTVSPropertyOp5
 70
     1
102
RTVSPropertyOp6
 70
     1
102
RTVSPropertyOp7
 70
     1
102
RTVSPropertyOp8
 70
     1
102
RTVSPropertyOp9
 70
     1
102
RTVSPropertyOp10
 70
     1
102
RTVSPropertyOp11
 70
     1
102
RTVSPropertyOp12
 70
     1
102
RTVSPropertyOp13
 70
     1
102
RTVSPropertyOp14
 70
     1
102
RTVSPropertyOp15
 70
     1
102
RTVSPropertyOp16
 70
     1
102
RTVSPropertyOp17
 70
     1
102
RTVSPropertyOp18
 70
     1
102
RTVSPropertyOp19
 70
     1
102
RTVSPropertyOp20
 70
     1
102
RTVSPropertyOp21
 70
     1
102
RTVSPropertyOp22
 70
     1
102
RTVSPropertyOp23
 70
     1
102
RTVSPropertyOp24
 70
     1
102
RTVSPropertyOp25
 70
     1
102
RTVSPropertyOp26
 70
     1
102
RTVSPropertyOp27
 70
     1
102
RTVSPropertyOp28
 70
     1
102
RTVSPropertyOp29
 70
     1
102
RTVSPropertyOp30
 70
     1
102
RTVSPropertyOp31
 70
     1
102
RTVSPropertyOp32
 70
     1
102
RTVSPropertyOp33
 70
     1
102
RTVSPropertyOp34
 70
     1
102
RTVSPropertyOp35
 70
     1
102
RTVSPropertyOp36
 70
     1
102
RTVSPropertyOp37
 70
     1
102
RTVSPropertyOp38
 70
     1
102
RTVSPropertyOp39
 70
     1
102
RTVSPropertyOp40
 70
     1
102
RTVSPropertyOp41
 70
     1
102
RTVSPropertyOp42
 70
     1
102
RTVSPropertyOp43
 70
     1
102
RTVSPropertyOp44
 70
     1
102
RTVSPropertyOp45
 70
     1
102
RTVSPropertyOp46
 70
     1
102
RTVSPropertyOp47
 70
     1
102
RTVSPropertyOp48
 70
     1
102
RTVSPropertyOp49
 70
     1
102
RTVSPropertyOp50
 70
     1
102
RTVSPropertyOp51
 70
     0
102
RTVSPropertyOp52
 70
     0
102
RTVSPropertyOp53
 70
     1
102
RTVSPropertyOp54
 70
     1
102
RTVSPropertyOp55
 70
     1
102
RTVSPropertyOp56
 70
     1
102
RTVSPropertyOp57
 70
     1
102
RTVSPost2010Prop28
280
     0
102
RTVSPost2010PropOp28
 70
     1
102
RTVSPost2010Prop29
280
     1
102
RTVSPost2010PropOp29
 70
     1
102
RTVSPost2010Prop30
280
     1
102
RTVSPost2010PropOp30
 70
     1
102
RTVSPost2010Prop31
280
     0
102
RTVSPost2010PropOp31
 70
     1
102
RTVSPost2010Prop32
280
     0
102
RTVSPost2010PropOp32
 70
     1
102
RTVSPost2010Prop33
280
     0
102
RTVSPost2010PropOp33
 70
     1
102
RTVSPost2010Prop34
280
     0
102
RTVSPost2010PropOp34
 70
     1
102
RTVSPost2010Prop35
280
     0
102
RTVSPost2010PropOp35
 70
     1
102
RTVSPost2010Prop36
280
     0
102
RTVSPost2010PropOp36
 70
     1
102
RTVSPost2010Prop37
 90
       50
102
RTVSPost2010PropOp37
 70
     1
102
RTVSPost2010Prop38
140
0.0
102
RTVSPost2010PropOp38
 70
     1
102
RTVSPost2010Prop39
140
1.0
102
RTVSPost2010PropOp39
 70
     1
102
RTVSPost2010Prop40
 90
        0
102
RTVSPost2010PropOp40
 70
     1
102
RTVSPost2010Prop41ColorIndex
 90
       18
102
RTVSPost2010Prop41ColorRGB
 90
        0
102
RTVSPost2010PropOp41
 70
     1
102
RTVSPost2010Prop42
 90
       50
102
RTVSPost2010PropOp42
 70
     1
102
RTVSPost2010Prop43
 90
        3
102
RTVSPost2010PropOp43
 70
     1
102
RTVSPost2010Prop44ColorIndex
 90
        5
102
RTVSPost2010Prop44ColorRGB
 90
      255
102
RTVSPost2010PropOp44
 70
     1
102
RTVSPost2010Prop45
280
     0
102
RTVSPost2010PropOp45
 70
     1
102
RTVSPost2010Prop46
 90
       50
102
RTVSPost2010PropOp46
 70
     1
102
RTVSPost2010Prop47
 90
       50
102
RTVSPost2010PropOp47
 70
     1
102
RTVSPost2010Prop48
 90
       50
102
RTVSPost2010PropOp48
 70
     1
102
RTVSPost2010Prop49
280
     0
102
RTVSPost2010PropOp49
 70
     1
102
RTVSPost2010Prop50
 90
       50
102
RTVSPost2010PropOp50
 70
     1
102
RTVSPost2010Prop51ColorIndex
 90
      256
102
RTVSPost2010Prop51ColorRGB
 90
-16777216
102
RTVSPost2010PropOp51
 70
     0
102
RTVSPost2010Prop52
140
1.0
102
RTVSPost2010PropOp52
 70
     0
102
RTVSPost2010Prop53
 90
        2
102
RTVSPost2010PropOp53
 70
     1
102
RTVSPost2010Prop54
  1
strokes_ogs.tif
102
RTVSPost2010PropOp54
 70
     1
102
RTVSPost2010Prop55
280
     0
102
RTVSPost2010PropOp55
 70
     1
102
RTVSPost2010Prop56
140
1.0
102
RTVSPost2010PropOp56
 70
     1
102
RTVSPost2010Prop57
140
1.0
102
RTVSPost2010PropOp57
 70
     1
  0
XRECORD
  5
F3
102
{ACAD_REACTORS
330
F2
102
}
330
F2
100
AcDbXrecord
280
     1
102
RTVSPropertyOp0
 70
     0
102
RTVSPropertyOp1
 70
     0
102
RTVSPropertyOp2
 70
     0
102
RTVSPropertyOp3
 70
     0
102
RTVSPropertyOp4
 70
     0
102
RTVSPropertyOp5
 70
     0
102
RTVSPropertyOp6
 70
     0
102
RTVSPropertyOp7
 70
     0
102
RTVSPropertyOp8
 70
     0
102
RTVSPropertyOp9
 70
     0
102
RTVSPropertyOp10
 70
     0
102
RTVSPropertyOp11
 70
     0
102
RTVSPropertyOp12
 70
     0
102
RTVSPropertyOp13
 70
     0
102
RTVSPropertyOp14
 70
     2
102
RTVSPropertyOp15
 70
     0
102
RTVSPropertyOp16
 70
     0
102
RTVSPropertyOp17
 70
     0
102
RTVSPropertyOp18
 70
     0
102
RTVSPropertyOp19
 70
     0
102
RTVSPropertyOp20
 70
     0
102
RTVSPropertyOp21
 70
     0
102
RTVSPropertyOp22
 70
     0
102
RTVSPropertyOp23
 70
     0
102
RTVSPropertyOp24
 70
     0
102
RTVSPropertyOp25
 70
     0
102
RTVSPropertyOp26
 70
     0
102
RTVSPropertyOp27
 70
     0
102
RTVSPropertyOp28
 70
     0
102
RTVSPropertyOp29
 70
     0
102
RTVSPropertyOp30
 70
     0
102
RTVSPropertyOp31
 70
     0
102
RTVSPropertyOp32
 70
     0
102
RTVSPropertyOp33
 70
     0
102
RTVSPropertyOp34
 70
     0
102
RTVSPropertyOp35
 70
     0
102
RTVSPropertyOp36
 70
     0
102
RTVSPropertyOp37
 70
     0
102
RTVSPropertyOp38
 70
     0
102
RTVSPropertyOp39
 70
     0
102
RTVSPropertyOp40
 70
     0
102
RTVSPropertyOp41
 70
     0
102
RTVSPropertyOp42
 70
     0
102
RTVSPropertyOp43
 70
     0
102
RTVSPropertyOp44
 70
     0
102
RTVSPropertyOp45
 70
     0
102
RTVSPropertyOp46
 70
     0
102
RTVSPropertyOp47
 70
     0
102
RTVSPropertyOp48
 70
     0
102
RTVSPropertyOp49
 70
     0
102
RTVSPropertyOp50
 70
     0
102
RTVSPropertyOp51
 70
     0
102
RTVSPropertyOp52
 70
     0
102
RTVSPropertyOp53
 70
     0
102
RTVSPropertyOp54
 70
     0
102
RTVSPropertyOp55
 70
     0
102
RTVSPropertyOp56
 70
     0
102
RTVSPropertyOp57
 70
     0
102
RTVSPost2010Prop28
280
     0
102
RTVSPost2010PropOp28
 70
     0
102
RTVSPost2010Prop29
280
     1
102
RTVSPost2010PropOp29
 70
     0
102
RTVSPost2010Prop30
280
     1
102
RTVSPost2010PropOp30
 70
     0
102
RTVSPost2010Prop31
280
     0
102
RTVSPost2010PropOp31
 70
     0
102
RTVSPost2010Prop32
280
     0
102
RTVSPost2010PropOp32
 70
     0
102
RTVSPost2010Prop33
280
     0
102
RTVSPost2010PropOp33
 70
     0
102
RTVSPost2010Prop34
280
     0
102
RTVSPost2010PropOp34
 70
     0
102
RTVSPost2010Prop35
280
     0
102
RTVSPost2010PropOp35
 70
     0
102
RTVSPost2010Prop36
280
     0
102
RTVSPost2010PropOp36
 70
     0
102
RTVSPost2010Prop37
 90
       50
102
RTVSPost2010PropOp37
 70
     0
102
RTVSPost2010Prop38
140
0.0
102
RTVSPost2010PropOp38
 70
     0
102
RTVSPost2010Prop39
140
1.0
102
RTVSPost2010PropOp39
 70
     0
102
RTVSPost2010Prop40
 90
        0
102
RTVSPost2010PropOp40
 70
     0
102
RTVSPost2010Prop41ColorIndex
 90
       18
102
RTVSPost2010Prop41ColorRGB
 90
        0
102
RTVSPost2010PropOp41
 70
     0
102
RTVSPost2010Prop42
 90
       50
102
RTVSPost2010PropOp42
 70
     0
102
RTVSPost2010Prop43
 90
        3
102
RTVSPost2010PropOp43
 70
     0
102
RTVSPost2010Prop44ColorIndex
 90
        5
102
RTVSPost2010Prop44ColorRGB
 90
      255
102
RTVSPost2010PropOp44
 70
     0
102
RTVSPost2010Prop45
280
     0
102
RTVSPost2010PropOp45
 70
     0
102
RTVSPost2010Prop46
 90
       50
102
RTVSPost2010PropOp46
 70
     0
102
RTVSPost2010Prop47
 90
       50
102
RTVSPost2010PropOp47
 70
     0
102
RTVSPost2010Prop48
 90
       50
102
RTVSPost2010PropOp48
 70
     0
102
RTVSPost2010Prop49
280
     0
102
RTVSPost2010PropOp49
 70
     0
102
RTVSPost2010Prop50
 90
       50
102
RTVSPost2010PropOp50
 70
     0
102
RTVSPost2010Prop51ColorIndex
 90
      256
102
RTVSPost2010Prop51ColorRGB
 90
-16777216
102
RTVSPost2010PropOp51
 70
     0
102
RTVSPost2010Prop52
140
1.0
102
RTVSPost2010PropOp52
 70
     0
102
RTVSPost2010Prop53
 90
        2
102
RTVSPost2010PropOp53
 70
     0
102
RTVSPost2010Prop54
  1
strokes_ogs.tif
102
RTVSPost2010PropOp54
 70
     0
102
RTVSPost2010Prop55
280
     0
102
RTVSPost2010PropOp55
 70
     0
102
RTVSPost2010Prop56
140
1.0
102
RTVSPost2010PropOp56
 70
     0
102
RTVSPost2010Prop57
140
1.0
102
RTVSPost2010PropOp57
 70
     0
  0
XRECORD
  5
ED
102
{ACAD_REACTORS
330
EC
102
}
330
EC
100
AcDbXrecord
280
     1
102
RTVSPropertyOp0
 70
     1
102
RTVSPropertyOp1
 70
     1
102
RTVSPropertyOp2
 70
     1
102
RTVSPropertyOp3
 70
     1
102
RTVSPropertyOp4
 70
     1
102
RTVSPropertyOp5
 70
     1
102
RTVSPropertyOp6
 70
     1
102
RTVSPropertyOp7
 70
     1
102
RTVSPropertyOp8
 70
     1
102
RTVSPropertyOp9
 70
     1
102
RTVSPropertyOp10
 70
     1
102
RTVSPropertyOp11
 70
     1
102
RTVSPropertyOp12
 70
     1
102
RTVSPropertyOp13
 70
     1
102
RTVSPropertyOp14
 70
     1
102
RTVSPropertyOp15
 70
     1
102
RTVSPropertyOp16
 70
     1
102
RTVSPropertyOp17
 70
     1
102
RTVSPropertyOp18
 70
     1
102
RTVSPropertyOp19
 70
     1
102
RTVSPropertyOp20
 70
     1
102
RTVSPropertyOp21
 70
     1
102
RTVSPropertyOp22
 70
     1
102
RTVSPropertyOp23
 70
     1
102
RTVSPropertyOp24
 70
     1
102
RTVSPropertyOp25
 70
     1
102
RTVSPropertyOp26
 70
     1
102
RTVSPropertyOp27
 70
     1
102
RTVSPropertyOp28
 70
     1
102
RTVSPropertyOp29
 70
     1
102
RTVSPropertyOp30
 70
     1
102
RTVSPropertyOp31
 70
     1
102
RTVSPropertyOp32
 70
     1
102
RTVSPropertyOp33
 70
     1
102
RTVSPropertyOp34
 70
     1
102
RTVSPropertyOp35
 70
     1
102
RTVSPropertyOp36
 70
     1
102
RTVSPropertyOp37
 70
     1
102
RTVSPropertyOp38
 70
     1
102
RTVSPropertyOp39
 70
     1
102
RTVSPropertyOp40
 70
     1
102
RTVSPropertyOp41
 70
     1
102
RTVSPropertyOp42
 70
     1
102
RTVSPropertyOp43
 70
     1
102
RTVSPropertyOp44
 70
     1
102
RTVSPropertyOp45
 70
     1
102
RTVSPropertyOp46
 70
     1
102
RTVSPropertyOp47
 70
     1
102
RTVSPropertyOp48
 70
     1
102
RTVSPropertyOp49
 70
     1
102
RTVSPropertyOp50
 70
     1
102
RTVSPropertyOp51
 70
     0
102
RTVSPropertyOp52
 70
     0
102
RTVSPropertyOp53
 70
     1
102
RTVSPropertyOp54
 70
     1
102
RTVSPropertyOp55
 70
     1
102
RTVSPropertyOp56
 70
     1
102
RTVSPropertyOp57
 70
     1
102
RTVSPost2010Prop28
280
     0
102
RTVSPost2010PropOp28
 70
     1
102
RTVSPost2010Prop29
280
     1
102
RTVSPost2010PropOp29
 70
     1
102
RTVSPost2010Prop30
280
     1
102
RTVSPost2010PropOp30
 70
     1
102
RTVSPost2010Prop31
280
     0
102
RTVSPost2010PropOp31
 70
     1
102
RTVSPost2010Prop32
280
     0
102
RTVSPost2010PropOp32
 70
     1
102
RTVSPost2010Prop33
280
     0
102
RTVSPost2010PropOp33
 70
     1
102
RTVSPost2010Prop34
280
     0
102
RTVSPost2010PropOp34
 70
     1
102
RTVSPost2010Prop35
280
     0
102
RTVSPost2010PropOp35
 70
     1
102
RTVSPost2010Prop36
280
     0
102
RTVSPost2010PropOp36
 70
     1
102
RTVSPost2010Prop37
 90
       50
102
RTVSPost2010PropOp37
 70
     1
102
RTVSPost2010Prop38
140
0.0
102
RTVSPost2010PropOp38
 70
     1
102
RTVSPost2010Prop39
140
1.0
102
RTVSPost2010PropOp39
 70
     1
102
RTVSPost2010Prop40
 90
        0
102
RTVSPost2010PropOp40
 70
     1
102
RTVSPost2010Prop41ColorIndex
 90
       18
102
RTVSPost2010Prop41ColorRGB
 90
        0
102
RTVSPost2010PropOp41
 70
     1
102
RTVSPost2010Prop42
 90
       50
102
RTVSPost2010PropOp42
 70
     1
102
RTVSPost2010Prop43
 90
        3
102
RTVSPost2010PropOp43
 70
     1
102
RTVSPost2010Prop44ColorIndex
 90
        5
102
RTVSPost2010Prop44ColorRGB
 90
      255
102
RTVSPost2010PropOp44
 70
     1
102
RTVSPost2010Prop45
280
     0
102
RTVSPost2010PropOp45
 70
     1
102
RTVSPost2010Prop46
 90
       50
102
RTVSPost2010PropOp46
 70
     1
102
RTVSPost2010Prop47
 90
       50
102
RTVSPost2010PropOp47
 70
     1
102
RTVSPost2010Prop48
 90
       50
102
RTVSPost2010PropOp48
 70
     1
102
RTVSPost2010Prop49
280
     0
102
RTVSPost2010PropOp49
 70
     1
102
RTVSPost2010Prop50
 90
       50
102
RTVSPost2010PropOp50
 70
     1
102
RTVSPost2010Prop51ColorIndex
 90
      256
102
RTVSPost2010Prop51ColorRGB
 90
-16777216
102
RTVSPost2010PropOp51
 70
     0
102
RTVSPost2010Prop52
140
1.0
102
RTVSPost2010PropOp52
 70
     0
102
RTVSPost2010Prop53
 90
        2
102
RTVSPost2010PropOp53
 70
     1
102
RTVSPost2010Prop54
  1
strokes_ogs.tif
102
RTVSPost2010PropOp54
 70
     1
102
RTVSPost2010Prop55
280
     0
102
RTVSPost2010PropOp55
 70
     1
102
RTVSPost2010Prop56
140
1.0
102
RTVSPost2010PropOp56
 70
     1
102
RTVSPost2010Prop57
140
1.0
102
RTVSPost2010PropOp57
 70
     1
  0
XRECORD
  5
F5
102
{ACAD_REACTORS
330
F4
102
}
330
F4
100
AcDbXrecord
280
     1
102
RTVSPropertyOp0
 70
     0
102
RTVSPropertyOp1
 70
     0
102
RTVSPropertyOp2
 70
     0
102
RTVSPropertyOp3
 70
     0
102
RTVSPropertyOp4
 70
     0
102
RTVSPropertyOp5
 70
     0
102
RTVSPropertyOp6
 70
     0
102
RTVSPropertyOp7
 70
     0
102
RTVSPropertyOp8
 70
     0
102
RTVSPropertyOp9
 70
     0
102
RTVSPropertyOp10
 70
     0
102
RTVSPropertyOp11
 70
     0
102
RTVSPropertyOp12
 70
     0
102
RTVSPropertyOp13
 70
     0
102
RTVSPropertyOp14
 70
     2
102
RTVSPropertyOp15
 70
     0
102
RTVSPropertyOp16
 70
     0
102
RTVSPropertyOp17
 70
     0
102
RTVSPropertyOp18
 70
     0
102
RTVSPropertyOp19
 70
     0
102
RTVSPropertyOp20
 70
     0
102
RTVSPropertyOp21
 70
     0
102
RTVSPropertyOp22
 70
     0
102
RTVSPropertyOp23
 70
     0
102
RTVSPropertyOp24
 70
     0
102
RTVSPropertyOp25
 70
     0
102
RTVSPropertyOp26
 70
     0
102
RTVSPropertyOp27
 70
     0
102
RTVSPropertyOp28
 70
     0
102
RTVSPropertyOp29
 70
     0
102
RTVSPropertyOp30
 70
     0
102
RTVSPropertyOp31
 70
     0
102
RTVSPropertyOp32
 70
     0
102
RTVSPropertyOp33
 70
     0
102
RTVSPropertyOp34
 70
     0
102
RTVSPropertyOp35
 70
     0
102
RTVSPropertyOp36
 70
     0
102
RTVSPropertyOp37
 70
     0
102
RTVSPropertyOp38
 70
     0
102
RTVSPropertyOp39
 70
     0
102
RTVSPropertyOp40
 70
     0
102
RTVSPropertyOp41
 70
     0
102
RTVSPropertyOp42
 70
     0
102
RTVSPropertyOp43
 70
     0
102
RTVSPropertyOp44
 70
     0
102
RTVSPropertyOp45
 70
     0
102
RTVSPropertyOp46
 70
     0
102
RTVSPropertyOp47
 70
     0
102
RTVSPropertyOp48
 70
     0
102
RTVSPropertyOp49
 70
     0
102
RTVSPropertyOp50
 70
     0
102
RTVSPropertyOp51
 70
     0
102
RTVSPropertyOp52
 70
     0
102
RTVSPropertyOp53
 70
     0
102
RTVSPropertyOp54
 70
     0
102
RTVSPropertyOp55
 70
     0
102
RTVSPropertyOp56
 70
     0
102
RTVSPropertyOp57
 70
     0
102
RTVSPost2010Prop28
280
     0
102
RTVSPost2010PropOp28
 70
     0
102
RTVSPost2010Prop29
280
     1
102
RTVSPost2010PropOp29
 70
     0
102
RTVSPost2010Prop30
280
     1
102
RTVSPost2010PropOp30
 70
     0
102
RTVSPost2010Prop31
280
     0
102
RTVSPost2010PropOp31
 70
     0
102
RTVSPost2010Prop32
280
     0
102
RTVSPost2010PropOp32
 70
     0
102
RTVSPost2010Prop33
280
     0
102
RTVSPost2010PropOp33
 70
     0
102
RTVSPost2010Prop34
280
     0
102
RTVSPost2010PropOp34
 70
     0
102
RTVSPost2010Prop35
280
     0
102
RTVSPost2010PropOp35
 70
     0
102
RTVSPost2010Prop36
280
     0
102
RTVSPost2010PropOp36
 70
     0
102
RTVSPost2010Prop37
 90
       50
102
RTVSPost2010PropOp37
 70
     0
102
RTVSPost2010Prop38
140
0.0
102
RTVSPost2010PropOp38
 70
     0
102
RTVSPost2010Prop39
140
1.0
102
RTVSPost2010PropOp39
 70
     0
102
RTVSPost2010Prop40
 90
        0
102
RTVSPost2010PropOp40
 70
     0
102
RTVSPost2010Prop41ColorIndex
 90
       18
102
RTVSPost2010Prop41ColorRGB
 90
        0
102
RTVSPost2010PropOp41
 70
     0
102
RTVSPost2010Prop42
 90
       50
102
RTVSPost2010PropOp42
 70
     0
102
RTVSPost2010Prop43
 90
        3
102
RTVSPost2010PropOp43
 70
     0
102
RTVSPost2010Prop44ColorIndex
 90
        5
102
RTVSPost2010Prop44ColorRGB
 90
      255
102
RTVSPost2010PropOp44
 70
     0
102
RTVSPost2010Prop45
280
     0
102
RTVSPost2010PropOp45
 70
     0
102
RTVSPost2010Prop46
 90
       50
102
RTVSPost2010PropOp46
 70
     0
102
RTVSPost2010Prop47
 90
       50
102
RTVSPost2010PropOp47
 70
     0
102
RTVSPost2010Prop48
 90
       50
102
RTVSPost2010PropOp48
 70
     0
102
RTVSPost2010Prop49
280
     0
102
RTVSPost2010PropOp49
 70
     0
102
RTVSPost2010Prop50
 90
       50
102
RTVSPost2010PropOp50
 70
     0
102
RTVSPost2010Prop51ColorIndex
 90
      256
102
RTVSPost2010Prop51ColorRGB
 90
-16777216
102
RTVSPost2010PropOp51
 70
     0
102
RTVSPost2010Prop52
140
1.0
102
RTVSPost2010PropOp52
 70
     0
102
RTVSPost2010Prop53
 90
        2
102
RTVSPost2010PropOp53
 70
     0
102
RTVSPost2010Prop54
  1
strokes_ogs.tif
102
RTVSPost2010PropOp54
 70
     0
102
RTVSPost2010Prop55
280
     0
102
RTVSPost2010PropOp55
 70
     0
102
RTVSPost2010Prop56
140
1.0
102
RTVSPost2010PropOp56
 70
     0
102
RTVSPost2010Prop57
140
1.0
102
RTVSPost2010PropOp57
 70
     0
  0
XRECORD
  5
E3
102
{ACAD_REACTORS
330
E2
102
}
330
E2
100
AcDbXrecord
280
     1
102
RTVSPropertyOp0
 70
     1
102
RTVSPropertyOp1
 70
     1
102
RTVSPropertyOp2
 70
     1
102
RTVSPropertyOp3
 70
     1
102
RTVSPropertyOp4
 70
     1
102
RTVSPropertyOp5
 70
     1
102
RTVSPropertyOp6
 70
     1
102
RTVSPropertyOp7
 70
     1
102
RTVSPropertyOp8
 70
     1
102
RTVSPropertyOp9
 70
     1
102
RTVSPropertyOp10
 70
     1
102
RTVSPropertyOp11
 70
     1
102
RTVSPropertyOp12
 70
     1
102
RTVSPropertyOp13
 70
     1
102
RTVSPropertyOp14
 70
     1
102
RTVSPropertyOp15
 70
     1
102
RTVSPropertyOp16
 70
     1
102
RTVSPropertyOp17
 70
     1
102
RTVSPropertyOp18
 70
     1
102
RTVSPropertyOp19
 70
     1
102
RTVSPropertyOp20
 70
     1
102
RTVSPropertyOp21
 70
     1
102
RTVSPropertyOp22
 70
     1
102
RTVSPropertyOp23
 70
     1
102
RTVSPropertyOp24
 70
     1
102
RTVSPropertyOp25
 70
     1
102
RTVSPropertyOp26
 70
     1
102
RTVSPropertyOp27
 70
     1
102
RTVSPropertyOp28
 70
     1
102
RTVSPropertyOp29
 70
     1
102
RTVSPropertyOp30
 70
     1
102
RTVSPropertyOp31
 70
     1
102
RTVSPropertyOp32
 70
     1
102
RTVSPropertyOp33
 70
     1
102
RTVSPropertyOp34
 70
     1
102
RTVSPropertyOp35
 70
     1
102
RTVSPropertyOp36
 70
     1
102
RTVSPropertyOp37
 70
     1
102
RTVSPropertyOp38
 70
     1
102
RTVSPropertyOp39
 70
     1
102
RTVSPropertyOp40
 70
     1
102
RTVSPropertyOp41
 70
     1
102
RTVSPropertyOp42
 70
     1
102
RTVSPropertyOp43
 70
     1
102
RTVSPropertyOp44
 70
     1
102
RTVSPropertyOp45
 70
     1
102
RTVSPropertyOp46
 70
     1
102
RTVSPropertyOp47
 70
     1
102
RTVSPropertyOp48
 70
     1
102
RTVSPropertyOp49
 70
     1
102
RTVSPropertyOp50
 70
     1
102
RTVSPropertyOp51
 70
     0
102
RTVSPropertyOp52
 70
     0
102
RTVSPropertyOp53
 70
     1
102
RTVSPropertyOp54
 70
     1
102
RTVSPropertyOp55
 70
     1
102
RTVSPropertyOp56
 70
     1
102
RTVSPropertyOp57
 70
     1
102
RTVSPost2010Prop28
280
     0
102
RTVSPost2010PropOp28
 70
     1
102
RTVSPost2010Prop29
280
     1
102
RTVSPost2010PropOp29
 70
     1
102
RTVSPost2010Prop30
280
     1
102
RTVSPost2010PropOp30
 70
     1
102
RTVSPost2010Prop31
280
     0
102
RTVSPost2010PropOp31
 70
     1
102
RTVSPost2010Prop32
280
     0
102
RTVSPost2010PropOp32
 70
     1
102
RTVSPost2010Prop33
280
     0
102
RTVSPost2010PropOp33
 70
     1
102
RTVSPost2010Prop34
280
     0
102
RTVSPost2010PropOp34
 70
     1
102
RTVSPost2010Prop35
280
     0
102
RTVSPost2010PropOp35
 70
     1
102
RTVSPost2010Prop36
280
     0
102
RTVSPost2010PropOp36
 70
     1
102
RTVSPost2010Prop37
 90
       50
102
RTVSPost2010PropOp37
 70
     1
102
RTVSPost2010Prop38
140
0.0
102
RTVSPost2010PropOp38
 70
     1
102
RTVSPost2010Prop39
140
1.0
102
RTVSPost2010PropOp39
 70
     1
102
RTVSPost2010Prop40
 90
        0
102
RTVSPost2010PropOp40
 70
     1
102
RTVSPost2010Prop41ColorIndex
 90
       18
102
RTVSPost2010Prop41ColorRGB
 90
        0
102
RTVSPost2010PropOp41
 70
     1
102
RTVSPost2010Prop42
 90
       50
102
RTVSPost2010PropOp42
 70
     1
102
RTVSPost2010Prop43
 90
        3
102
RTVSPost2010PropOp43
 70
     1
102
RTVSPost2010Prop44ColorIndex
 90
        5
102
RTVSPost2010Prop44ColorRGB
 90
      255
102
RTVSPost2010PropOp44
 70
     1
102
RTVSPost2010Prop45
280
     0
102
RTVSPost2010PropOp45
 70
     1
102
RTVSPost2010Prop46
 90
       50
102
RTVSPost2010PropOp46
 70
     1
102
RTVSPost2010Prop47
 90
       50
102
RTVSPost2010PropOp47
 70
     1
102
RTVSPost2010Prop48
 90
       50
102
RTVSPost2010PropOp48
 70
     1
102
RTVSPost2010Prop49
280
     0
102
RTVSPost2010PropOp49
 70
     1
102
RTVSPost2010Prop50
 90
       50
102
RTVSPost2010PropOp50
 70
     1
102
RTVSPost2010Prop51ColorIndex
 90
      256
102
RTVSPost2010Prop51ColorRGB
 90
-16777216
102
RTVSPost2010PropOp51
 70
     0
102
RTVSPost2010Prop52
140
1.0
102
RTVSPost2010PropOp52
 70
     0
102
RTVSPost2010Prop53
 90
        2
102
RTVSPost2010PropOp53
 70
     1
102
RTVSPost2010Prop54
  1
strokes_ogs.tif
102
RTVSPost2010PropOp54
 70
     1
102
RTVSPost2010Prop55
280
     0
102
RTVSPost2010PropOp55
 70
     1
102
RTVSPost2010Prop56
140
1.0
102
RTVSPost2010PropOp56
 70
     1
102
RTVSPost2010Prop57
140
1.0
102
RTVSPost2010PropOp57
 70
     1
  0
XRECORD
  5
101
102
{ACAD_REACTORS
330
100
102
}
330
100
100
AcDbXrecord
280
     1
102
RTVSPropertyOp0
 70
     1
102
RTVSPropertyOp1
 70
     1
102
RTVSPropertyOp2
 70
     1
102
RTVSPropertyOp3
 70
     1
102
RTVSPropertyOp4
 70
     1
102
RTVSPropertyOp5
 70
     1
102
RTVSPropertyOp6
 70
     1
102
RTVSPropertyOp7
 70
     1
102
RTVSPropertyOp8
 70
     1
102
RTVSPropertyOp9
 70
     1
102
RTVSPropertyOp10
 70
     1
102
RTVSPropertyOp11
 70
     1
102
RTVSPropertyOp12
 70
     1
102
RTVSPropertyOp13
 70
     1
102
RTVSPropertyOp14
 70
     1
102
RTVSPropertyOp15
 70
     1
102
RTVSPropertyOp16
 70
     1
102
RTVSPropertyOp17
 70
     1
102
RTVSPropertyOp18
 70
     1
102
RTVSPropertyOp19
 70
     1
102
RTVSPropertyOp20
 70
     1
102
RTVSPropertyOp21
 70
     1
102
RTVSPropertyOp22
 70
     1
102
RTVSPropertyOp23
 70
     1
102
RTVSPropertyOp24
 70
     1
102
RTVSPropertyOp25
 70
     1
102
RTVSPropertyOp26
 70
     1
102
RTVSPropertyOp27
 70
     1
102
RTVSPropertyOp28
 70
     1
102
RTVSPropertyOp29
 70
     1
102
RTVSPropertyOp30
 70
     1
102
RTVSPropertyOp31
 70
     1
102
RTVSPropertyOp32
 70
     1
102
RTVSPropertyOp33
 70
     1
102
RTVSPropertyOp34
 70
     1
102
RTVSPropertyOp35
 70
     1
102
RTVSPropertyOp36
 70
     1
102
RTVSPropertyOp37
 70
     1
102
RTVSPropertyOp38
 70
     1
102
RTVSPropertyOp39
 70
     1
102
RTVSPropertyOp40
 70
     1
102
RTVSPropertyOp41
 70
     1
102
RTVSPropertyOp42
 70
     1
102
RTVSPropertyOp43
 70
     1
102
RTVSPropertyOp44
 70
     1
102
RTVSPropertyOp45
 70
     1
102
RTVSPropertyOp46
 70
     1
102
RTVSPropertyOp47
 70
     1
102
RTVSPropertyOp48
 70
     1
102
RTVSPropertyOp49
 70
     1
102
RTVSPropertyOp50
 70
     1
102
RTVSPropertyOp51
 70
     0
102
RTVSPropertyOp52
 70
     0
102
RTVSPropertyOp53
 70
     1
102
RTVSPropertyOp54
 70
     1
102
RTVSPropertyOp55
 70
     1
102
RTVSPropertyOp56
 70
     1
102
RTVSPropertyOp57
 70
     1
102
RTVSPost2010Prop28
280
     0
102
RTVSPost2010PropOp28
 70
     1
102
RTVSPost2010Prop29
280
     1
102
RTVSPost2010PropOp29
 70
     1
102
RTVSPost2010Prop30
280
     1
102
RTVSPost2010PropOp30
 70
     1
102
RTVSPost2010Prop31
280
     0
102
RTVSPost2010PropOp31
 70
     1
102
RTVSPost2010Prop32
280
     0
102
RTVSPost2010PropOp32
 70
     1
102
RTVSPost2010Prop33
280
     0
102
RTVSPost2010PropOp33
 70
     1
102
RTVSPost2010Prop34
280
     0
102
RTVSPost2010PropOp34
 70
     1
102
RTVSPost2010Prop35
280
     0
102
RTVSPost2010PropOp35
 70
     1
102
RTVSPost2010Prop36
280
     0
102
RTVSPost2010PropOp36
 70
     1
102
RTVSPost2010Prop37
 90
       50
102
RTVSPost2010PropOp37
 70
     1
102
RTVSPost2010Prop38
140
0.0
102
RTVSPost2010PropOp38
 70
     1
102
RTVSPost2010Prop39
140
1.0
102
RTVSPost2010PropOp39
 70
     1
102
RTVSPost2010Prop40
 90
        0
102
RTVSPost2010PropOp40
 70
     1
102
RTVSPost2010Prop41ColorIndex
 90
       18
102
RTVSPost2010Prop41ColorRGB
 90
        0
102
RTVSPost2010PropOp41
 70
     1
102
RTVSPost2010Prop42
 90
       50
102
RTVSPost2010PropOp42
 70
     1
102
RTVSPost2010Prop43
 90
        3
102
RTVSPost2010PropOp43
 70
     1
102
RTVSPost2010Prop44ColorIndex
 90
        5
102
RTVSPost2010Prop44ColorRGB
 90
      255
102
RTVSPost2010PropOp44
 70
     1
102
RTVSPost2010Prop45
280
     0
102
RTVSPost2010PropOp45
 70
     1
102
RTVSPost2010Prop46
 90
       50
102
RTVSPost2010PropOp46
 70
     1
102
RTVSPost2010Prop47
 90
       50
102
RTVSPost2010PropOp47
 70
     1
102
RTVSPost2010Prop48
 90
       50
102
RTVSPost2010PropOp48
 70
     1
102
RTVSPost2010Prop49
280
     0
102
RTVSPost2010PropOp49
 70
     1
102
RTVSPost2010Prop50
 90
       50
102
RTVSPost2010PropOp50
 70
     1
102
RTVSPost2010Prop51ColorIndex
 90
      256
102
RTVSPost2010Prop51ColorRGB
 90
-16777216
102
RTVSPost2010PropOp51
 70
     0
102
RTVSPost2010Prop52
140
1.0
102
RTVSPost2010PropOp52
 70
     0
102
RTVSPost2010Prop53
 90
        2
102
RTVSPost2010PropOp53
 70
     1
102
RTVSPost2010Prop54
  1
strokes_ogs.tif
102
RTVSPost2010PropOp54
 70
     1
102
RTVSPost2010Prop55
280
     0
102
RTVSPost2010PropOp55
 70
     1
102
RTVSPost2010Prop56
140
1.0
102
RTVSPost2010PropOp56
 70
     1
102
RTVSPost2010Prop57
140
1.0
102
RTVSPost2010PropOp57
 70
     1
  0
XRECORD
  5
FF
102
{ACAD_REACTORS
330
FE
102
}
330
FE
100
AcDbXrecord
280
     1
102
RTVSPropertyOp0
 70
     1
102
RTVSPropertyOp1
 70
     1
102
RTVSPropertyOp2
 70
     1
102
RTVSPropertyOp3
 70
     1
102
RTVSPropertyOp4
 70
     1
102
RTVSPropertyOp5
 70
     1
102
RTVSPropertyOp6
 70
     1
102
RTVSPropertyOp7
 70
     1
102
RTVSPropertyOp8
 70
     1
102
RTVSPropertyOp9
 70
     1
102
RTVSPropertyOp10
 70
     1
102
RTVSPropertyOp11
 70
     1
102
RTVSPropertyOp12
 70
     1
102
RTVSPropertyOp13
 70
     1
102
RTVSPropertyOp14
 70
     1
102
RTVSPropertyOp15
 70
     1
102
RTVSPropertyOp16
 70
     1
102
RTVSPropertyOp17
 70
     1
102
RTVSPropertyOp18
 70
     1
102
RTVSPropertyOp19
 70
     1
102
RTVSPropertyOp20
 70
     1
102
RTVSPropertyOp21
 70
     1
102
RTVSPropertyOp22
 70
     1
102
RTVSPropertyOp23
 70
     1
102
RTVSPropertyOp24
 70
     1
102
RTVSPropertyOp25
 70
     1
102
RTVSPropertyOp26
 70
     1
102
RTVSPropertyOp27
 70
     1
102
RTVSPropertyOp28
 70
     1
102
RTVSPropertyOp29
 70
     1
102
RTVSPropertyOp30
 70
     1
102
RTVSPropertyOp31
 70
     1
102
RTVSPropertyOp32
 70
     1
102
RTVSPropertyOp33
 70
     1
102
RTVSPropertyOp34
 70
     1
102
RTVSPropertyOp35
 70
     1
102
RTVSPropertyOp36
 70
     1
102
RTVSPropertyOp37
 70
     1
102
RTVSPropertyOp38
 70
     1
102
RTVSPropertyOp39
 70
     1
102
RTVSPropertyOp40
 70
     1
102
RTVSPropertyOp41
 70
     1
102
RTVSPropertyOp42
 70
     1
102
RTVSPropertyOp43
 70
     1
102
RTVSPropertyOp44
 70
     1
102
RTVSPropertyOp45
 70
     1
102
RTVSPropertyOp46
 70
     1
102
RTVSPropertyOp47
 70
     1
102
RTVSPropertyOp48
 70
     1
102
RTVSPropertyOp49
 70
     1
102
RTVSPropertyOp50
 70
     1
102
RTVSPropertyOp51
 70
     0
102
RTVSPropertyOp52
 70
     0
102
RTVSPropertyOp53
 70
     1
102
RTVSPropertyOp54
 70
     1
102
RTVSPropertyOp55
 70
     1
102
RTVSPropertyOp56
 70
     1
102
RTVSPropertyOp57
 70
     1
102
RTVSPost2010Prop28
280
     0
102
RTVSPost2010PropOp28
 70
     1
102
RTVSPost2010Prop29
280
     1
102
RTVSPost2010PropOp29
 70
     1
102
RTVSPost2010Prop30
280
     1
102
RTVSPost2010PropOp30
 70
     1
102
RTVSPost2010Prop31
280
     0
102
RTVSPost2010PropOp31
 70
     1
102
RTVSPost2010Prop32
280
     0
102
RTVSPost2010PropOp32
 70
     1
102
RTVSPost2010Prop33
280
     0
102
RTVSPost2010PropOp33
 70
     1
102
RTVSPost2010Prop34
280
     0
102
RTVSPost2010PropOp34
 70
     1
102
RTVSPost2010Prop35
280
     0
102
RTVSPost2010PropOp35
 70
     1
102
RTVSPost2010Prop36
280
     0
102
RTVSPost2010PropOp36
 70
     1
102
RTVSPost2010Prop37
 90
       50
102
RTVSPost2010PropOp37
 70
     1
102
RTVSPost2010Prop38
140
0.0
102
RTVSPost2010PropOp38
 70
     1
102
RTVSPost2010Prop39
140
1.0
102
RTVSPost2010PropOp39
 70
     1
102
RTVSPost2010Prop40
 90
        0
102
RTVSPost2010PropOp40
 70
     1
102
RTVSPost2010Prop41ColorIndex
 90
       18
102
RTVSPost2010Prop41ColorRGB
 90
        0
102
RTVSPost2010PropOp41
 70
     1
102
RTVSPost2010Prop42
 90
       50
102
RTVSPost2010PropOp42
 70
     1
102
RTVSPost2010Prop43
 90
        3
102
RTVSPost2010PropOp43
 70
     1
102
RTVSPost2010Prop44ColorIndex
 90
        5
102
RTVSPost2010Prop44ColorRGB
 90
      255
102
RTVSPost2010PropOp44
 70
     1
102
RTVSPost2010Prop45
280
     0
102
RTVSPost2010PropOp45
 70
     1
102
RTVSPost2010Prop46
 90
       50
102
RTVSPost2010PropOp46
 70
     1
102
RTVSPost2010Prop47
 90
       50
102
RTVSPost2010PropOp47
 70
     1
102
RTVSPost2010Prop48
 90
       50
102
RTVSPost2010PropOp48
 70
     1
102
RTVSPost2010Prop49
280
     0
102
RTVSPost2010PropOp49
 70
     1
102
RTVSPost2010Prop50
 90
       50
102
RTVSPost2010PropOp50
 70
     1
102
RTVSPost2010Prop51ColorIndex
 90
      256
102
RTVSPost2010Prop51ColorRGB
 90
-16777216
102
RTVSPost2010PropOp51
 70
     0
102
RTVSPost2010Prop52
140
1.0
102
RTVSPost2010PropOp52
 70
     0
102
RTVSPost2010Prop53
 90
        2
102
RTVSPost2010PropOp53
 70
     1
102
RTVSPost2010Prop54
  1
strokes_ogs.tif
102
RTVSPost2010PropOp54
 70
     1
102
RTVSPost2010Prop55
280
     0
102
RTVSPost2010PropOp55
 70
     1
102
RTVSPost2010Prop56
140
1.0
102
RTVSPost2010PropOp56
 70
     1
102
RTVSPost2010Prop57
140
1.0
102
RTVSPost2010PropOp57
 70
     1
  0
XRECORD
  5
F9
102
{ACAD_REACTORS
330
F8
102
}
330
F8
100
AcDbXrecord
280
     1
102
RTVSPropertyOp0
 70
     1
102
RTVSPropertyOp1
 70
     1
102
RTVSPropertyOp2
 70
     1
102
RTVSPropertyOp3
 70
     1
102
RTVSPropertyOp4
 70
     1
102
RTVSPropertyOp5
 70
     1
102
RTVSPropertyOp6
 70
     1
102
RTVSPropertyOp7
 70
     1
102
RTVSPropertyOp8
 70
     1
102
RTVSPropertyOp9
 70
     1
102
RTVSPropertyOp10
 70
     1
102
RTVSPropertyOp11
 70
     1
102
RTVSPropertyOp12
 70
     1
102
RTVSPropertyOp13
 70
     1
102
RTVSPropertyOp14
 70
     1
102
RTVSPropertyOp15
 70
     1
102
RTVSPropertyOp16
 70
     1
102
RTVSPropertyOp17
 70
     1
102
RTVSPropertyOp18
 70
     1
102
RTVSPropertyOp19
 70
     1
102
RTVSPropertyOp20
 70
     1
102
RTVSPropertyOp21
 70
     1
102
RTVSPropertyOp22
 70
     1
102
RTVSPropertyOp23
 70
     1
102
RTVSPropertyOp24
 70
     1
102
RTVSPropertyOp25
 70
     1
102
RTVSPropertyOp26
 70
     1
102
RTVSPropertyOp27
 70
     1
102
RTVSPropertyOp28
 70
     1
102
RTVSPropertyOp29
 70
     1
102
RTVSPropertyOp30
 70
     1
102
RTVSPropertyOp31
 70
     1
102
RTVSPropertyOp32
 70
     1
102
RTVSPropertyOp33
 70
     1
102
RTVSPropertyOp34
 70
     1
102
RTVSPropertyOp35
 70
     1
102
RTVSPropertyOp36
 70
     1
102
RTVSPropertyOp37
 70
     1
102
RTVSPropertyOp38
 70
     1
102
RTVSPropertyOp39
 70
     1
102
RTVSPropertyOp40
 70
     1
102
RTVSPropertyOp41
 70
     1
102
RTVSPropertyOp42
 70
     1
102
RTVSPropertyOp43
 70
     1
102
RTVSPropertyOp44
 70
     1
102
RTVSPropertyOp45
 70
     1
102
RTVSPropertyOp46
 70
     1
102
RTVSPropertyOp47
 70
     1
102
RTVSPropertyOp48
 70
     1
102
RTVSPropertyOp49
 70
     1
102
RTVSPropertyOp50
 70
     1
102
RTVSPropertyOp51
 70
     0
102
RTVSPropertyOp52
 70
     0
102
RTVSPropertyOp53
 70
     1
102
RTVSPropertyOp54
 70
     1
102
RTVSPropertyOp55
 70
     1
102
RTVSPropertyOp56
 70
     1
102
RTVSPropertyOp57
 70
     1
102
RTVSPost2010Prop28
280
     0
102
RTVSPost2010PropOp28
 70
     1
102
RTVSPost2010Prop29
280
     1
102
RTVSPost2010PropOp29
 70
     1
102
RTVSPost2010Prop30
280
     1
102
RTVSPost2010PropOp30
 70
     1
102
RTVSPost2010Prop31
280
     0
102
RTVSPost2010PropOp31
 70
     1
102
RTVSPost2010Prop32
280
     0
102
RTVSPost2010PropOp32
 70
     1
102
RTVSPost2010Prop33
280
     0
102
RTVSPost2010PropOp33
 70
     1
102
RTVSPost2010Prop34
280
     0
102
RTVSPost2010PropOp34
 70
     1
102
RTVSPost2010Prop35
280
     0
102
RTVSPost2010PropOp35
 70
     1
102
RTVSPost2010Prop36
280
     0
102
RTVSPost2010PropOp36
 70
     1
102
RTVSPost2010Prop37
 90
       50
102
RTVSPost2010PropOp37
 70
     1
102
RTVSPost2010Prop38
140
0.0
102
RTVSPost2010PropOp38
 70
     1
102
RTVSPost2010Prop39
140
1.0
102
RTVSPost2010PropOp39
 70
     1
102
RTVSPost2010Prop40
 90
        0
102
RTVSPost2010PropOp40
 70
     1
102
RTVSPost2010Prop41ColorIndex
 90
       18
102
RTVSPost2010Prop41ColorRGB
 90
        0
102
RTVSPost2010PropOp41
 70
     1
102
RTVSPost2010Prop42
 90
       50
102
RTVSPost2010PropOp42
 70
     1
102
RTVSPost2010Prop43
 90
        3
102
RTVSPost2010PropOp43
 70
     1
102
RTVSPost2010Prop44ColorIndex
 90
        5
102
RTVSPost2010Prop44ColorRGB
 90
      255
102
RTVSPost2010PropOp44
 70
     1
102
RTVSPost2010Prop45
280
     0
102
RTVSPost2010PropOp45
 70
     1
102
RTVSPost2010Prop46
 90
       50
102
RTVSPost2010PropOp46
 70
     1
102
RTVSPost2010Prop47
 90
       50
102
RTVSPost2010PropOp47
 70
     1
102
RTVSPost2010Prop48
 90
       50
102
RTVSPost2010PropOp48
 70
     1
102
RTVSPost2010Prop49
280
     0
102
RTVSPost2010PropOp49
 70
     1
102
RTVSPost2010Prop50
 90
       50
102
RTVSPost2010PropOp50
 70
     1
102
RTVSPost2010Prop51ColorIndex
 90
      256
102
RTVSPost2010Prop51ColorRGB
 90
-16777216
102
RTVSPost2010PropOp51
 70
     0
102
RTVSPost2010Prop52
140
1.0
102
RTVSPost2010PropOp52
 70
     0
102
RTVSPost2010Prop53
 90
        2
102
RTVSPost2010PropOp53
 70
     1
102
RTVSPost2010Prop54
  1
strokes_ogs.tif
102
RTVSPost2010PropOp54
 70
     1
102
RTVSPost2010Prop55
280
     0
102
RTVSPost2010PropOp55
 70
     1
102
RTVSPost2010Prop56
140
1.0
102
RTVSPost2010PropOp56
 70
     1
102
RTVSPost2010Prop57
140
1.0
102
RTVSPost2010PropOp57
 70
     1
  0
XRECORD
  5
FB
102
{ACAD_REACTORS
330
FA
102
}
330
FA
100
AcDbXrecord
280
     1
102
RTVSPropertyOp0
 70
     1
102
RTVSPropertyOp1
 70
     1
102
RTVSPropertyOp2
 70
     1
102
RTVSPropertyOp3
 70
     1
102
RTVSPropertyOp4
 70
     1
102
RTVSPropertyOp5
 70
     1
102
RTVSPropertyOp6
 70
     1
102
RTVSPropertyOp7
 70
     1
102
RTVSPropertyOp8
 70
     1
102
RTVSPropertyOp9
 70
     1
102
RTVSPropertyOp10
 70
     1
102
RTVSPropertyOp11
 70
     1
102
RTVSPropertyOp12
 70
     1
102
RTVSPropertyOp13
 70
     1
102
RTVSPropertyOp14
 70
     1
102
RTVSPropertyOp15
 70
     1
102
RTVSPropertyOp16
 70
     1
102
RTVSPropertyOp17
 70
     1
102
RTVSPropertyOp18
 70
     1
102
RTVSPropertyOp19
 70
     1
102
RTVSPropertyOp20
 70
     1
102
RTVSPropertyOp21
 70
     1
102
RTVSPropertyOp22
 70
     1
102
RTVSPropertyOp23
 70
     1
102
RTVSPropertyOp24
 70
     1
102
RTVSPropertyOp25
 70
     1
102
RTVSPropertyOp26
 70
     1
102
RTVSPropertyOp27
 70
     1
102
RTVSPropertyOp28
 70
     1
102
RTVSPropertyOp29
 70
     1
102
RTVSPropertyOp30
 70
     1
102
RTVSPropertyOp31
 70
     1
102
RTVSPropertyOp32
 70
     1
102
RTVSPropertyOp33
 70
     1
102
RTVSPropertyOp34
 70
     1
102
RTVSPropertyOp35
 70
     1
102
RTVSPropertyOp36
 70
     1
102
RTVSPropertyOp37
 70
     1
102
RTVSPropertyOp38
 70
     1
102
RTVSPropertyOp39
 70
     1
102
RTVSPropertyOp40
 70
     1
102
RTVSPropertyOp41
 70
     1
102
RTVSPropertyOp42
 70
     1
102
RTVSPropertyOp43
 70
     1
102
RTVSPropertyOp44
 70
     1
102
RTVSPropertyOp45
 70
     1
102
RTVSPropertyOp46
 70
     1
102
RTVSPropertyOp47
 70
     1
102
RTVSPropertyOp48
 70
     1
102
RTVSPropertyOp49
 70
     1
102
RTVSPropertyOp50
 70
     1
102
RTVSPropertyOp51
 70
     0
102
RTVSPropertyOp52
 70
     0
102
RTVSPropertyOp53
 70
     1
102
RTVSPropertyOp54
 70
     1
102
RTVSPropertyOp55
 70
     1
102
RTVSPropertyOp56
 70
     1
102
RTVSPropertyOp57
 70
     1
102
RTVSPost2010Prop28
280
     0
102
RTVSPost2010PropOp28
 70
     1
102
RTVSPost2010Prop29
280
     1
102
RTVSPost2010PropOp29
 70
     1
102
RTVSPost2010Prop30
280
     1
102
RTVSPost2010PropOp30
 70
     1
102
RTVSPost2010Prop31
280
     0
102
RTVSPost2010PropOp31
 70
     1
102
RTVSPost2010Prop32
280
     0
102
RTVSPost2010PropOp32
 70
     1
102
RTVSPost2010Prop33
280
     0
102
RTVSPost2010PropOp33
 70
     1
102
RTVSPost2010Prop34
280
     0
102
RTVSPost2010PropOp34
 70
     1
102
RTVSPost2010Prop35
280
     0
102
RTVSPost2010PropOp35
 70
     1
102
RTVSPost2010Prop36
280
     0
102
RTVSPost2010PropOp36
 70
     1
102
RTVSPost2010Prop37
 90
       50
102
RTVSPost2010PropOp37
 70
     1
102
RTVSPost2010Prop38
140
0.0
102
RTVSPost2010PropOp38
 70
     1
102
RTVSPost2010Prop39
140
1.0
102
RTVSPost2010PropOp39
 70
     1
102
RTVSPost2010Prop40
 90
        0
102
RTVSPost2010PropOp40
 70
     1
102
RTVSPost2010Prop41ColorIndex
 90
       18
102
RTVSPost2010Prop41ColorRGB
 90
        0
102
RTVSPost2010PropOp41
 70
     1
102
RTVSPost2010Prop42
 90
       50
102
RTVSPost2010PropOp42
 70
     1
102
RTVSPost2010Prop43
 90
        3
102
RTVSPost2010PropOp43
 70
     1
102
RTVSPost2010Prop44ColorIndex
 90
        5
102
RTVSPost2010Prop44ColorRGB
 90
      255
102
RTVSPost2010PropOp44
 70
     1
102
RTVSPost2010Prop45
280
     0
102
RTVSPost2010PropOp45
 70
     1
102
RTVSPost2010Prop46
 90
       50
102
RTVSPost2010PropOp46
 70
     1
102
RTVSPost2010Prop47
 90
       50
102
RTVSPost2010PropOp47
 70
     1
102
RTVSPost2010Prop48
 90
       50
102
RTVSPost2010PropOp48
 70
     1
102
RTVSPost2010Prop49
280
     0
102
RTVSPost2010PropOp49
 70
     1
102
RTVSPost2010Prop50
 90
       50
102
RTVSPost2010PropOp50
 70
     1
102
RTVSPost2010Prop51ColorIndex
 90
      256
102
RTVSPost2010Prop51ColorRGB
 90
-16777216
102
RTVSPost2010PropOp51
 70
     0
102
RTVSPost2010Prop52
140
1.0
102
RTVSPost2010PropOp52
 70
     0
102
RTVSPost2010Prop53
 90
        2
102
RTVSPost2010PropOp53
 70
     1
102
RTVSPost2010Prop54
  1
strokes_ogs.tif
102
RTVSPost2010PropOp54
 70
     1
102
RTVSPost2010Prop55
280
     0
102
RTVSPost2010PropOp55
 70
     1
102
RTVSPost2010Prop56
140
1.0
102
RTVSPost2010PropOp56
 70
     1
102
RTVSPost2010Prop57
140
1.0
102
RTVSPost2010PropOp57
 70
     1
  0
XRECORD
  5
EB
102
{ACAD_REACTORS
330
EA
102
}
330
EA
100
AcDbXrecord
280
     1
102
RTVSPropertyOp0
 70
     1
102
RTVSPropertyOp1
 70
     1
102
RTVSPropertyOp2
 70
     1
102
RTVSPropertyOp3
 70
     1
102
RTVSPropertyOp4
 70
     1
102
RTVSPropertyOp5
 70
     1
102
RTVSPropertyOp6
 70
     1
102
RTVSPropertyOp7
 70
     1
102
RTVSPropertyOp8
 70
     1
102
RTVSPropertyOp9
 70
     1
102
RTVSPropertyOp10
 70
     1
102
RTVSPropertyOp11
 70
     1
102
RTVSPropertyOp12
 70
     1
102
RTVSPropertyOp13
 70
     1
102
RTVSPropertyOp14
 70
     1
102
RTVSPropertyOp15
 70
     1
102
RTVSPropertyOp16
 70
     1
102
RTVSPropertyOp17
 70
     1
102
RTVSPropertyOp18
 70
     1
102
RTVSPropertyOp19
 70
     1
102
RTVSPropertyOp20
 70
     1
102
RTVSPropertyOp21
 70
     1
102
RTVSPropertyOp22
 70
     1
102
RTVSPropertyOp23
 70
     1
102
RTVSPropertyOp24
 70
     1
102
RTVSPropertyOp25
 70
     1
102
RTVSPropertyOp26
 70
     1
102
RTVSPropertyOp27
 70
     1
102
RTVSPropertyOp28
 70
     1
102
RTVSPropertyOp29
 70
     1
102
RTVSPropertyOp30
 70
     1
102
RTVSPropertyOp31
 70
     1
102
RTVSPropertyOp32
 70
     1
102
RTVSPropertyOp33
 70
     1
102
RTVSPropertyOp34
 70
     1
102
RTVSPropertyOp35
 70
     1
102
RTVSPropertyOp36
 70
     1
102
RTVSPropertyOp37
 70
     1
102
RTVSPropertyOp38
 70
     1
102
RTVSPropertyOp39
 70
     1
102
RTVSPropertyOp40
 70
     1
102
RTVSPropertyOp41
 70
     1
102
RTVSPropertyOp42
 70
     1
102
RTVSPropertyOp43
 70
     1
102
RTVSPropertyOp44
 70
     1
102
RTVSPropertyOp45
 70
     1
102
RTVSPropertyOp46
 70
     1
102
RTVSPropertyOp47
 70
     1
102
RTVSPropertyOp48
 70
     1
102
RTVSPropertyOp49
 70
     1
102
RTVSPropertyOp50
 70
     1
102
RTVSPropertyOp51
 70
     0
102
RTVSPropertyOp52
 70
     0
102
RTVSPropertyOp53
 70
     1
102
RTVSPropertyOp54
 70
     1
102
RTVSPropertyOp55
 70
     1
102
RTVSPropertyOp56
 70
     1
102
RTVSPropertyOp57
 70
     1
102
RTVSPost2010Prop28
280
     0
102
RTVSPost2010PropOp28
 70
     1
102
RTVSPost2010Prop29
280
     1
102
RTVSPost2010PropOp29
 70
     1
102
RTVSPost2010Prop30
280
     1
102
RTVSPost2010PropOp30
 70
     1
102
RTVSPost2010Prop31
280
     0
102
RTVSPost2010PropOp31
 70
     1
102
RTVSPost2010Prop32
280
     0
102
RTVSPost2010PropOp32
 70
     1
102
RTVSPost2010Prop33
280
     0
102
RTVSPost2010PropOp33
 70
     1
102
RTVSPost2010Prop34
280
     0
102
RTVSPost2010PropOp34
 70
     1
102
RTVSPost2010Prop35
280
     0
102
RTVSPost2010PropOp35
 70
     1
102
RTVSPost2010Prop36
280
     0
102
RTVSPost2010PropOp36
 70
     1
102
RTVSPost2010Prop37
 90
       50
102
RTVSPost2010PropOp37
 70
     1
102
RTVSPost2010Prop38
140
0.0
102
RTVSPost2010PropOp38
 70
     1
102
RTVSPost2010Prop39
140
1.0
102
RTVSPost2010PropOp39
 70
     1
102
RTVSPost2010Prop40
 90
        0
102
RTVSPost2010PropOp40
 70
     1
102
RTVSPost2010Prop41ColorIndex
 90
       18
102
RTVSPost2010Prop41ColorRGB
 90
        0
102
RTVSPost2010PropOp41
 70
     1
102
RTVSPost2010Prop42
 90
       50
102
RTVSPost2010PropOp42
 70
     1
102
RTVSPost2010Prop43
 90
        3
102
RTVSPost2010PropOp43
 70
     1
102
RTVSPost2010Prop44ColorIndex
 90
        5
102
RTVSPost2010Prop44ColorRGB
 90
      255
102
RTVSPost2010PropOp44
 70
     1
102
RTVSPost2010Prop45
280
     0
102
RTVSPost2010PropOp45
 70
     1
102
RTVSPost2010Prop46
 90
       50
102
RTVSPost2010PropOp46
 70
     1
102
RTVSPost2010Prop47
 90
       50
102
RTVSPost2010PropOp47
 70
     1
102
RTVSPost2010Prop48
 90
       50
102
RTVSPost2010PropOp48
 70
     1
102
RTVSPost2010Prop49
280
     0
102
RTVSPost2010PropOp49
 70
     1
102
RTVSPost2010Prop50
 90
       50
102
RTVSPost2010PropOp50
 70
     1
102
RTVSPost2010Prop51ColorIndex
 90
      256
102
RTVSPost2010Prop51ColorRGB
 90
-16777216
102
RTVSPost2010PropOp51
 70
     0
102
RTVSPost2010Prop52
140
1.0
102
RTVSPost2010PropOp52
 70
     0
102
RTVSPost2010Prop53
 90
        2
102
RTVSPost2010PropOp53
 70
     1
102
RTVSPost2010Prop54
  1
strokes_ogs.tif
102
RTVSPost2010PropOp54
 70
     1
102
RTVSPost2010Prop55
280
     0
102
RTVSPost2010PropOp55
 70
     1
102
RTVSPost2010Prop56
140
1.0
102
RTVSPost2010PropOp56
 70
     1
102
RTVSPost2010Prop57
140
1.0
102
RTVSPost2010PropOp57
 70
     1
  0
XRECORD
  5
DD
102
{ACAD_REACTORS
330
DC
102
}
330
DC
100
AcDbXrecord
280
     1
102
RTVSPropertyOp0
 70
     1
102
RTVSPropertyOp1
 70
     1
102
RTVSPropertyOp2
 70
     1
102
RTVSPropertyOp3
 70
     1
102
RTVSPropertyOp4
 70
     1
102
RTVSPropertyOp5
 70
     1
102
RTVSPropertyOp6
 70
     1
102
RTVSPropertyOp7
 70
     1
102
RTVSPropertyOp8
 70
     1
102
RTVSPropertyOp9
 70
     1
102
RTVSPropertyOp10
 70
     1
102
RTVSPropertyOp11
 70
     1
102
RTVSPropertyOp12
 70
     1
102
RTVSPropertyOp13
 70
     1
102
RTVSPropertyOp14
 70
     1
102
RTVSPropertyOp15
 70
     1
102
RTVSPropertyOp16
 70
     1
102
RTVSPropertyOp17
 70
     1
102
RTVSPropertyOp18
 70
     1
102
RTVSPropertyOp19
 70
     1
102
RTVSPropertyOp20
 70
     1
102
RTVSPropertyOp21
 70
     1
102
RTVSPropertyOp22
 70
     1
102
RTVSPropertyOp23
 70
     1
102
RTVSPropertyOp24
 70
     1
102
RTVSPropertyOp25
 70
     1
102
RTVSPropertyOp26
 70
     1
102
RTVSPropertyOp27
 70
     1
102
RTVSPropertyOp28
 70
     1
102
RTVSPropertyOp29
 70
     1
102
RTVSPropertyOp30
 70
     1
102
RTVSPropertyOp31
 70
     1
102
RTVSPropertyOp32
 70
     1
102
RTVSPropertyOp33
 70
     1
102
RTVSPropertyOp34
 70
     1
102
RTVSPropertyOp35
 70
     1
102
RTVSPropertyOp36
 70
     1
102
RTVSPropertyOp37
 70
     1
102
RTVSPropertyOp38
 70
     1
102
RTVSPropertyOp39
 70
     1
102
RTVSPropertyOp40
 70
     1
102
RTVSPropertyOp41
 70
     1
102
RTVSPropertyOp42
 70
     1
102
RTVSPropertyOp43
 70
     1
102
RTVSPropertyOp44
 70
     1
102
RTVSPropertyOp45
 70
     1
102
RTVSPropertyOp46
 70
     1
102
RTVSPropertyOp47
 70
     1
102
RTVSPropertyOp48
 70
     1
102
RTVSPropertyOp49
 70
     1
102
RTVSPropertyOp50
 70
     1
102
RTVSPropertyOp51
 70
     0
102
RTVSPropertyOp52
 70
     0
102
RTVSPropertyOp53
 70
     1
102
RTVSPropertyOp54
 70
     1
102
RTVSPropertyOp55
 70
     1
102
RTVSPropertyOp56
 70
     1
102
RTVSPropertyOp57
 70
     1
102
RTVSPost2010Prop28
280
     0
102
RTVSPost2010PropOp28
 70
     1
102
RTVSPost2010Prop29
280
     1
102
RTVSPost2010PropOp29
 70
     1
102
RTVSPost2010Prop30
280
     1
102
RTVSPost2010PropOp30
 70
     1
102
RTVSPost2010Prop31
280
     0
102
RTVSPost2010PropOp31
 70
     1
102
RTVSPost2010Prop32
280
     0
102
RTVSPost2010PropOp32
 70
     1
102
RTVSPost2010Prop33
280
     0
102
RTVSPost2010PropOp33
 70
     1
102
RTVSPost2010Prop34
280
     0
102
RTVSPost2010PropOp34
 70
     1
102
RTVSPost2010Prop35
280
     0
102
RTVSPost2010PropOp35
 70
     1
102
RTVSPost2010Prop36
280
     0
102
RTVSPost2010PropOp36
 70
     1
102
RTVSPost2010Prop37
 90
       50
102
RTVSPost2010PropOp37
 70
     1
102
RTVSPost2010Prop38
140
0.0
102
RTVSPost2010PropOp38
 70
     1
102
RTVSPost2010Prop39
140
1.0
102
RTVSPost2010PropOp39
 70
     1
102
RTVSPost2010Prop40
 90
        0
102
RTVSPost2010PropOp40
 70
     1
102
RTVSPost2010Prop41ColorIndex
 90
       18
102
RTVSPost2010Prop41ColorRGB
 90
        0
102
RTVSPost2010PropOp41
 70
     1
102
RTVSPost2010Prop42
 90
       50
102
RTVSPost2010PropOp42
 70
     1
102
RTVSPost2010Prop43
 90
        3
102
RTVSPost2010PropOp43
 70
     1
102
RTVSPost2010Prop44ColorIndex
 90
        5
102
RTVSPost2010Prop44ColorRGB
 90
      255
102
RTVSPost2010PropOp44
 70
     1
102
RTVSPost2010Prop45
280
     0
102
RTVSPost2010PropOp45
 70
     1
102
RTVSPost2010Prop46
 90
       50
102
RTVSPost2010PropOp46
 70
     1
102
RTVSPost2010Prop47
 90
       50
102
RTVSPost2010PropOp47
 70
     1
102
RTVSPost2010Prop48
 90
       50
102
RTVSPost2010PropOp48
 70
     1
102
RTVSPost2010Prop49
280
     0
102
RTVSPost2010PropOp49
 70
     1
102
RTVSPost2010Prop50
 90
       50
102
RTVSPost2010PropOp50
 70
     1
102
RTVSPost2010Prop51ColorIndex
 90
      256
102
RTVSPost2010Prop51ColorRGB
 90
-16777216
102
RTVSPost2010PropOp51
 70
     0
102
RTVSPost2010Prop52
140
1.0
102
RTVSPost2010PropOp52
 70
     0
102
RTVSPost2010Prop53
 90
        2
102
RTVSPost2010PropOp53
 70
     1
102
RTVSPost2010Prop54
  1
strokes_ogs.tif
102
RTVSPost2010PropOp54
 70
     1
102
RTVSPost2010Prop55
280
     0
102
RTVSPost2010PropOp55
 70
     1
102
RTVSPost2010Prop56
140
1.0
102
RTVSPost2010PropOp56
 70
     1
102
RTVSPost2010Prop57
140
1.0
102
RTVSPost2010PropOp57
 70
     1
  0
XRECORD
  5
FD
102
{ACAD_REACTORS
330
FC
102
}
330
FC
100
AcDbXrecord
280
     1
102
RTVSPropertyOp0
 70
     1
102
RTVSPropertyOp1
 70
     1
102
RTVSPropertyOp2
 70
     1
102
RTVSPropertyOp3
 70
     1
102
RTVSPropertyOp4
 70
     1
102
RTVSPropertyOp5
 70
     1
102
RTVSPropertyOp6
 70
     1
102
RTVSPropertyOp7
 70
     1
102
RTVSPropertyOp8
 70
     1
102
RTVSPropertyOp9
 70
     1
102
RTVSPropertyOp10
 70
     1
102
RTVSPropertyOp11
 70
     1
102
RTVSPropertyOp12
 70
     1
102
RTVSPropertyOp13
 70
     1
102
RTVSPropertyOp14
 70
     1
102
RTVSPropertyOp15
 70
     1
102
RTVSPropertyOp16
 70
     1
102
RTVSPropertyOp17
 70
     1
102
RTVSPropertyOp18
 70
     1
102
RTVSPropertyOp19
 70
     1
102
RTVSPropertyOp20
 70
     1
102
RTVSPropertyOp21
 70
     1
102
RTVSPropertyOp22
 70
     1
102
RTVSPropertyOp23
 70
     1
102
RTVSPropertyOp24
 70
     1
102
RTVSPropertyOp25
 70
     1
102
RTVSPropertyOp26
 70
     1
102
RTVSPropertyOp27
 70
     1
102
RTVSPropertyOp28
 70
     1
102
RTVSPropertyOp29
 70
     1
102
RTVSPropertyOp30
 70
     1
102
RTVSPropertyOp31
 70
     1
102
RTVSPropertyOp32
 70
     1
102
RTVSPropertyOp33
 70
     1
102
RTVSPropertyOp34
 70
     1
102
RTVSPropertyOp35
 70
     1
102
RTVSPropertyOp36
 70
     1
102
RTVSPropertyOp37
 70
     1
102
RTVSPropertyOp38
 70
     1
102
RTVSPropertyOp39
 70
     1
102
RTVSPropertyOp40
 70
     1
102
RTVSPropertyOp41
 70
     1
102
RTVSPropertyOp42
 70
     1
102
RTVSPropertyOp43
 70
     1
102
RTVSPropertyOp44
 70
     1
102
RTVSPropertyOp45
 70
     1
102
RTVSPropertyOp46
 70
     1
102
RTVSPropertyOp47
 70
     1
102
RTVSPropertyOp48
 70
     1
102
RTVSPropertyOp49
 70
     1
102
RTVSPropertyOp50
 70
     1
102
RTVSPropertyOp51
 70
     0
102
RTVSPropertyOp52
 70
     0
102
RTVSPropertyOp53
 70
     1
102
RTVSPropertyOp54
 70
     1
102
RTVSPropertyOp55
 70
     1
102
RTVSPropertyOp56
 70
     1
102
RTVSPropertyOp57
 70
     1
102
RTVSPost2010Prop28
280
     0
102
RTVSPost2010PropOp28
 70
     1
102
RTVSPost2010Prop29
280
     1
102
RTVSPost2010PropOp29
 70
     1
102
RTVSPost2010Prop30
280
     1
102
RTVSPost2010PropOp30
 70
     1
102
RTVSPost2010Prop31
280
     0
102
RTVSPost2010PropOp31
 70
     1
102
RTVSPost2010Prop32
280
     0
102
RTVSPost2010PropOp32
 70
     1
102
RTVSPost2010Prop33
280
     0
102
RTVSPost2010PropOp33
 70
     1
102
RTVSPost2010Prop34
280
     0
102
RTVSPost2010PropOp34
 70
     1
102
RTVSPost2010Prop35
280
     0
102
RTVSPost2010PropOp35
 70
     1
102
RTVSPost2010Prop36
280
     0
102
RTVSPost2010PropOp36
 70
     1
102
RTVSPost2010Prop37
 90
       50
102
RTVSPost2010PropOp37
 70
     1
102
RTVSPost2010Prop38
140
0.0
102
RTVSPost2010PropOp38
 70
     1
102
RTVSPost2010Prop39
140
1.0
102
RTVSPost2010PropOp39
 70
     1
102
RTVSPost2010Prop40
 90
        0
102
RTVSPost2010PropOp40
 70
     1
102
RTVSPost2010Prop41ColorIndex
 90
       18
102
RTVSPost2010Prop41ColorRGB
 90
        0
102
RTVSPost2010PropOp41
 70
     1
102
RTVSPost2010Prop42
 90
       50
102
RTVSPost2010PropOp42
 70
     1
102
RTVSPost2010Prop43
 90
        3
102
RTVSPost2010PropOp43
 70
     1
102
RTVSPost2010Prop44ColorIndex
 90
        5
102
RTVSPost2010Prop44ColorRGB
 90
      255
102
RTVSPost2010PropOp44
 70
     1
102
RTVSPost2010Prop45
280
     0
102
RTVSPost2010PropOp45
 70
     1
102
RTVSPost2010Prop46
 90
       50
102
RTVSPost2010PropOp46
 70
     1
102
RTVSPost2010Prop47
 90
       50
102
RTVSPost2010PropOp47
 70
     1
102
RTVSPost2010Prop48
 90
       50
102
RTVSPost2010PropOp48
 70
     1
102
RTVSPost2010Prop49
280
     0
102
RTVSPost2010PropOp49
 70
     1
102
RTVSPost2010Prop50
 90
       50
102
RTVSPost2010PropOp50
 70
     1
102
RTVSPost2010Prop51ColorIndex
 90
      256
102
RTVSPost2010Prop51ColorRGB
 90
-16777216
102
RTVSPost2010PropOp51
 70
     0
102
RTVSPost2010Prop52
140
1.0
102
RTVSPost2010PropOp52
 70
     0
102
RTVSPost2010Prop53
 90
        2
102
RTVSPost2010PropOp53
 70
     1
102
RTVSPost2010Prop54
  1
strokes_ogs.tif
102
RTVSPost2010PropOp54
 70
     1
102
RTVSPost2010Prop55
280
     0
102
RTVSPost2010PropOp55
 70
     1
102
RTVSPost2010Prop56
140
1.0
102
RTVSPost2010PropOp56
 70
     1
102
RTVSPost2010Prop57
140
1.0
102
RTVSPost2010PropOp57
 70
     1
  0
ENDSEC
  0
EOF
